Tablatura para Guitarra de Eva Ayllon: Mal paso
Conexión · Inscripción
Letras y Acordes
Pantalla Completa
Imprimir
Versión Texto
Añadir Favorito
Otras Versiones

Mostrar Diagramas
Desfile Automático
Manipular Acordes
Formato del Texto

Eva Ayllon
Mal paso(TAB)
calidad:
eayl0013
AUTOR: Eva Ayllon  corregir
ALBUM: desconocido
Enviado por cristian
 bueno aki les mando el intro. de MAL PASO.




                  F          Dm       F
1-----0-2-4-4-5-7-8----------10---8--8----
2-----1-3-5-5-6-9-10-------10------10-10--
3------------------------10---------------
4----------------------10-----------------


                       G             C
1-------------8------8-10---8--8---------
2-----------10-10-----10-----10-10-8-9---
3-------9-10-----------------------------
4--10-12---------------------------------


                C     Em
1---0-3-0-------030-0---0-3-0-------
2---------3-1------3----------3-1---


   Am    G            C
1-030-0---0-3-0------301-301-301-40--40--40---5-5-5----
2----3----------3-1----------------0---0---0--5-5-5----
3---------------------------------------------5-5-5----


1---0-3-0-------030-0---0-3-0-------
2---------3-1------3----------3-1---

1-030-0---0-3-0------301-301-301-40--40--40---545----
2----3----------3-1----------------0---0---0-----5---
3-----------------------------------------5----------
4------------------------------------------7---------
Envía el tono de "Mal paso" a tu celular/móvil
Este fichero es trabajo propio de su transcriptor y representa su interpretación personal de la canción. El material contenido en esta página es
para exclusivo uso privado, por lo que se prohibe su reproducción o retransmisión, así como su uso para fines comerciales.
© LaCuerda.net · Aviso Legal · Privacidad