Tablatura para Guitarra de Espinoza Paz: Si mañana no me ves
Conexión · Inscripción
Letras y Acordes
Pantalla Completa
Imprimir
Versión Texto
Añadir Favorito
Otras Versiones

Mostrar Diagramas
Desfile Automático
Manipular Acordes
Formato del Texto

Espinoza Paz
Si mañana no me ves(TAB)
calidad:
epaz0562
AUTOR: Espinoza Paz
ALBUM: desconocido (2011)
Enviado por luis
INTRO

e|--------8------------------------------
b|---------11-10-8-8SL11-11-10-8---------
g|------------------------------10-------
d|---10-10------------------------10-----
a|---------------------------------------
e|---------------------------------------


e|---------8-10-10SL12-8-8-------------------------
b|------11----------------10-8---------------------
g|-----------------------------10------------------
d|-10-10-------------------------------------------
a|-------------------------------------------------
e|-------------------------------------------------


e|-----8-------------------------------8--8----8--8-10-8-8-----------
b|-------11-10-8-8SL11-11-10-11-10-8---------10--10--------10-8------
g|------------------------------------10-----------------------10----
d|10-10--------------------------------------------------------------
a|-------------------------------------------------------------------
e|-------------------------------------------------------------------

Aqui esta la tablatura espero q les guste un saludo a todos departe
 de los kinchos boys
y para alguna aclaracion mi correo es we619@hotmail.es ok bye
Envía el tono de "Si mañana no me ves" a tu celular/móvil
Este fichero es trabajo propio de su transcriptor y representa su interpretación personal de la canción. El material contenido en esta página es
para exclusivo uso privado, por lo que se prohibe su reproducción o retransmisión, así como su uso para fines comerciales.
© LaCuerda.net · Aviso Legal · Privacidad