Tablatura para Guitarra de Espinoza Paz: El próximo viernes
Conexión · Inscripción
Letras y Acordes
Pantalla Completa
Imprimir
Versión Texto
Añadir Favorito
Otras Versiones

Mostrar Diagramas
Desfile Automático
Manipular Acordes
Formato del Texto

Espinoza Paz
El próximo viernes(TAB)
calidad:
epaz0026
AUTOR: Espinoza paz
ALBUM: desconocido
Enviado por david, basado en jonh, S.G.
   G            Dm        C7           F
\\======/    \\x=====/    \\======/    \\======/
 ||||||      |||||o      ||||o|      oooooo
 |o||||      |||o||      ||o|||      |||o||
 o||||o      ||||o|      |o||o|      |oo|||
 ||||||      ||||||      ||||||      ||||||


   C
\\======/
 ||||O|
 ||O|||
 |O||||
 ||||||

BUENO COMPAS LES DEJO EL RASGUEO TAMBIEN CUIDENSE
LES DEJO MI CORREO ESPERO COMENTARIOS.
Davia1995@hotmail.com

Este es el rasgueo
*= arriba
v= abajo
x= apagado
   *       *      *
6--|-|--x--|-|-x--|-|-x----
5--|-|--x--|-|-x--|-|-x----
4--|-|--x--|-|-x--|-|-x----
3--|-|--x--|-|-x--|-|-x----
2--|-|--x--|-|-x--|-|-x----
1--|-|--x--|-|-x--|-|-x----
     v       v      v
   C                                     F
E |----------------------------------------0----------|
B |------0-3-1h3-1---1h3-1---1h3-1--1-1-3-------------|
G |-0-0------------0-------0-------0----------2-------|
D |---------------------------------------------------|
A |---------------------------------------------------|
E |---------------------------------------------------|

                             Dm                F           G
E |-----------------------0/1-----------0/1-----------------------|
B |------1h3-1---1h3-1--------3-1/3---------3-1/3--1--1--1-3/5-3--|
G |----2-------2-------2--------------2--------------2--2---------|
D |---------------------------------------------------------.-----|
A |---------------------------------------------------------------|
E |---------------------------------------------------------------|



(Esto es hablado mientras tocas el intro)

Hola bebe, Lamento mucho lo sucedido,
Pero te amo, Mucho te amo,
Bebe no andes con nadie porfa.


      C                 G
Hola Bebe, ¿Cómo has estado?
             F
Tal vez no sepas, quien habla
      Dm                G
O tal vez lo hayas olvidado.

  F                  C
Bebe, yo no soy tan malo
  F                 C
Bebe, sabes que te amo
   Dm
Salgamos el viernes
     F          G
Y hablemos de frente.

            C
Igual y le robo un beso a tu boca
   C7         F
Y dejas de creer que soy poca cosa
              Dm                    F
Igual y te explico, igual y no entiendes
          G
Que te necesito.

              C
Igual y te abrazo, con mucha ternura
       C7       F
Y hago desaparecer, toditas tus dudas

              Dm
Igual y he fallado, pero dime
    F                  G
¿Quién no se ha equivocado.

             C
Igual y de plano, ya no quieres verme
      C7       F
Pero déjame besar de nuevo tu frente
            Dm                F   G
Igual y te pido volverte a miraaaaar
                 C
El próximo viernes.


          C                                     F
E |----------------------------------------0----------|
B |------0-3-1h3-1---1h3-1---1h3-1--1-1-3-------------|
G |-0-0------------0-------0-------0----------2-------|
D |---------------------------------------------------|
A |---------------------------------------------------|
E |---------------------------------------------------|

                             Dm                F           G
E |-----------------------0/1-----------0/1-----------------------|
B |------1h3-1---1h3-1--------3-1/3---------3-1/3--1--1--1-3/5-3--|
G |----2-------2-------2--------------2--------------2--2---------|
D |---------------------------------------------------------.-----|
A |---------------------------------------------------------------|
E |---------------------------------------------------------------|



            C
Igual y te robo un beso...
Envía el tono de "El próximo viernes" a tu celular/móvil
Este fichero es trabajo propio de su transcriptor y representa su interpretación personal de la canción. El material contenido en esta página es
para exclusivo uso privado, por lo que se prohibe su reproducción o retransmisión, así como su uso para fines comerciales.
© LaCuerda.net · Aviso Legal · Privacidad