Tablatura para Guitarra de Esperanza de vida: Todo el mundo sabrá
Conexión · Inscripción
Letras y Acordes
Pantalla Completa
Imprimir
Versión Texto
Añadir Favorito
Otras Versiones

Mostrar Diagramas
Desfile Automático
Manipular Acordes
Formato del Texto

Esperanza de vida
Todo el mundo sabrá(TAB)
calidad:
edvd0242
AUTOR: Armando Moreno Persijn
ALBUM: Hoy es Tiempo (2010)
Enviado por david
NOTA
Las x significan que hace la nota e inmediatamente apaga

intro
e----------------------------------------------
b-------------------------------5x5------------
g-----------------------4-4-6-6x----6-4-6x-6x6x-4-
d-4x--4-4--6-6--7-7x-7-7-------------------------7-4-
a-4x-----------------------------------------------
E------------------------------------------------

e--------------------------------------------
b----------------------------5x5-------------
g------------------4-4--6-6x-----6-4-6x-6x6x-4--
d--4-4-6-6-7-7x-7-7----------------------------7-4-
a---------------------------------------------
E------------------------------------------

e---------------------------------------------
b-----------------------------5x5----------------
g-------------------4-4--6-6x-----6-4-6x-6x6x-4--
d--4-4-6-6-7-7x-7-7-----------------------------7-4-
a--------------------------------------------
E-----------------------------------------------

Armonía   F#m    A    D     Bm

F#m               E                  Bm
Por los siglos reinaras con suprema autoridad
          D              F#m
Y toda nación tu nombre cantara
              E                 Bm
Tu poder no cesara tu amor no acabara
              D
Principio y final nunca cambiaras
F#m  A  D     A             E   F#m  A D   A    E
Mi Dios por quien yo viviré mi señor a ti exaltare
F#m      A         E         D           F#m
Todo el mundo hoy sabrá que Jesús es la verdad
       A            E  D
Por siempre te alabaran
F#m   A          E        D        F#m
Solo tu eres mi amor mi camino y salvación
  A           E   D
Tuyo es mi corazón
e-------------------------------------------
b----------------------------5x5-------------
g------------------4-4--6-6x----6-4-6x-6x6x-4-
d-4-4-6-6-7-7x-7-7----------------------------7-4
a----------------------------------------------
E------------------------------------------

e------------------------------------------
b----------------------------5x5-----------
g-------------------4-4--6-6x----6-4-6x-6x6x-4-
d-4-4--6-6-7-7x-7-7----------------------------7-4
a---------------------------------------------
E------------------------------------------

Armonía   F#m    A    D     Bm

F#m               E                    Bm
Por los siglos reinaras con suprema autoridad
          D              F#m
Y toda nación tu nombre cantara
       E                         Bm
Tu poder no cesara tu amor no acabara
               D
Principio y final nunca cambiaras
F#m  A   D    A             E   F#m  A  D   A   E
Mi Dios por quien yo viviré mi señor a ti exaltare
F#m     A           E         D           F#m
Todo el mundo hoy sabrá que Jesús es la verdad
       A             E  D
Por siempre te alabaran
F#m  A           E         D        F#m
Solo tu eres mi amor mi camino y salvación
    A          E   D
Tuyo es mi corazón

PUENTE  F#m  A  D  A  E    x2

F#m  A  D    A         E   F#m  A  D   A    E
Mi Dios por quien yo viviré mi señor a ti exaltare

Bateria sola con el coro

F#m      A          E         D          F#m
Todo el mundo hoy sabrá que Jesús es la verdad
       A            E  D -entra banda -
Por siempre te alabaran
F#m  A           E        D         F#m
Solo tu eres mi amor mi camino y salvación
 A           E   D
Tuyo es mi corazon
F#m      A         E        D            F#m
Todo el mundo hoy sabrá que Jesús es la verdad
 F#m      A           E     D     F#m
Solo tu eres mi amor mi camino y salvación
  A          E   D
Tuyo es mi corazón

Final

F#m   A  D
MI Dios
Envía el tono de "Todo el mundo sabrá" a tu celular/móvil
Este fichero es trabajo propio de su transcriptor y representa su interpretación personal de la canción. El material contenido en esta página es
para exclusivo uso privado, por lo que se prohibe su reproducción o retransmisión, así como su uso para fines comerciales.
© LaCuerda.net · Aviso Legal · Privacidad