Tablatura para Guitarra de Eros Ramazzotti: Cosas de la vida
Conexión · Inscripción
Letras y Acordes
Pantalla Completa
Imprimir
Versión Texto
Añadir Favorito
Otras Versiones

Mostrar Diagramas
Desfile Automático
Manipular Acordes
Formato del Texto

Eros Ramazzotti
Cosas de la vida(TAB)
calidad:
eros0063
AUTOR: Eros Ramazzotti  corregir
ALBUM: desconocido
Enviado por Guzt
INTRO:
e---------------------------------------------------------------
B---------------------------------------------------------------
G--1-1-1-1------1-1-1-1------1-1-1-1------------9---------------
D--2-2-2-2------2-2-2-2------2-2-2-2------------9--------------
A--2-2-2-2------2-2-2-2------2-2-2-2------------7--------------
E---------------------------------------------------------------
    (Ajustar al ritmo de la canción)
Luego
e---------------------------------------------------------------
B---------------------------------------------------------------
G---------------------------------------------------------------
D---------------------------------------------------------------
A-----------------------0-4-------------------------------------
E---0-1-2-------------------2-----------------------------------
  (2 veces)

FA#m   RE         LA  MI
Son humanas situaciones
FA#m   RE         LA  MI
los momentos de los dos,
FA#m   RE           LA MI
las distancias, las pasiones,
FA#m   RE     LA  MI
encontrar una raz¢n.
SIm  LA    MI
Hoy como siempre
SIm   LA        MI
estoy pensando en ti ... sí... ya ves

FA#m   RE    LA   MI x 2

FA#m   RE         LA  MI
son humanas condiciones
FA#m   RE         LA  MI
el sentirse bien o no
FA#m   RE         LA  MI
si es de día o es de noche
FA#m   RE         LA  MI
si es nostalgia o desamor
SIm  LA    MI
hoy... como siempre
SIm  LA    MI
estoy pensando en ti
   LA                MI                   SIm
como si nuestro tiempo no hubiera pasado ya.
     FA#m
Dime ¨d¢nde estamos, que podr  pasar?
      LA               MI                SIm
Corazones, flechazos pero de cada cual
     FA#m                             MI
esa es la barrera que hay que derribar
  FA#m-RE-LA-MI          FA#m-RE-LA-MI
Estoy pensando en ti, estoy pensando en mi.

SOL#m     MI    SI   FA#  x2 o PUNTEO

e---11b-(9)-7----7-9------7-9-----------------------------------
B--------------------11-------9---7---9-----7------0------------
G-8---------------------------------8------------6--------------
D----------------------------------------------------8-9-8---9--
A----------------------------------------------------------9----
E---------------------------------------------------------------

e-------6-7-6---11-14-(14)-
B-----7-------7------------
G-6-8----------------------
D--------------------------
A--------------------------
E--------------------------

SOL#m     MI    SI   FA#
Son las cosas de la vida,
SOL#m     MI    SI   FA#
van unidas siempre as¡.

SOL#m     MI    SI   FA#
el esfuerzo la fatiga
SOL#m     MI    SI   FA#
que supone estar aqu¡.
MI   SI  FA#
Hoy miro al cielo,

MI     SI        FA#
pon los pies en el suelo porque
SI         FA#            E
ser humano es lo que quiero ser,
SI         FA#            E
con mis manos y lo alcanzare,
SI         FA#            E
ser humano es lo que quiero ser (¬que quiero ser!)
SI         FA#            E
con mis manos yo lo alcanzare.

LAm    FA    DO     SOL
son las cosas de la vida
LAm    FA    DO     SOL
nunca me acostumbraré... no lo haré, no lo haré
LAm    FA    DO     SOL
casi siempre es una herida
LAm    FA    DO     SOL
que tu corazón no ve... que no ve, que no ve
FA     LAm     SOL
hoy... como siempre
FA     LAm     SOL
solamente pienso en ti
DO             SOL               REm
y esta noche que pasa lenta, rozándome,
LAm
trato de afrontarla aferrarla
DO             SOL                REm
y derrapo en las curvas de tu corazón porque
LAm
quiero provocarla y que sepas que...
LAm    FA    DO     SOL
estoy pensando en ti
LAm    FA    DO     SOL
estoy pensando en mí
LAm  FA  DO  SOL   LAm………
ya ves... ya ves
Envía el tono de "Cosas de la vida" a tu celular/móvil
Este fichero es trabajo propio de su transcriptor y representa su interpretación personal de la canción. El material contenido en esta página es
para exclusivo uso privado, por lo que se prohibe su reproducción o retransmisión, así como su uso para fines comerciales.
© LaCuerda.net · Aviso Legal · Privacidad