Tablatura para Guitarra de Eros Ramazzotti: Cosas de la vida
Conexión · Inscripción
Letras y Acordes
Pantalla Completa
Imprimir
Versión Texto
Añadir Favorito
Otras Versiones

Mostrar Diagramas
Desfile Automático
Manipular Acordes
Formato del Texto


Eros Ramazzotti
Cosas de la vida(TAB)
calidad:
eros0063
AUTOR: Eros Ramazzotti  corregir
ALBUM: desconocido
Enviado por Guzt
INTRO:
e---------------------------------------------------------------
B---------------------------------------------------------------
G--1-1-1-1------1-1-1-1------1-1-1-1------------9---------------
D--2-2-2-2------2-2-2-2------2-2-2-2------------9--------------
A--2-2-2-2------2-2-2-2------2-2-2-2------------7--------------
E---------------------------------------------------------------
    (Ajustar al ritmo de la canción)
Luego
e---------------------------------------------------------------
B---------------------------------------------------------------
G---------------------------------------------------------------
D---------------------------------------------------------------
A-----------------------0-4-------------------------------------
E---0-1-2-------------------2-----------------------------------
  (2 veces)

Son humanas situaciones
los momentos de los dos,
las distancias, las pasiones,
encontrar una raz¢n.
Hoy como siempre
estoy pensando en ti ... sí... ya ves

FA#m RE LA MI x 2
son humanas condiciones el sentirse bien o no si es de día o es de noche si es nostalgia o desamor hoy... como siempre estoy pensando en ti como si nuestro tiempo no hubiera pasado ya. Dime ¨d¢nde estamos, que podr pasar? Corazones, flechazos pero de cada cual esa es la barrera que hay que derribar Estoy pensando en ti, estoy pensando en mi.
SOL#m MI SI FA# x2 o PUNTEO
e---11b-(9)-7----7-9------7-9----------------------------------- B--------------------11-------9---7---9-----7------0------------ G-8---------------------------------8------------6-------------- D----------------------------------------------------8-9-8---9-- A----------------------------------------------------------9---- E--------------------------------------------------------------- e-------6-7-6---11-14-(14)- B-----7-------7------------ G-6-8---------------------- D-------------------------- A-------------------------- E-------------------------- Son las cosas de la vida, van unidas siempre as¡. el esfuerzo la fatiga que supone estar aqu¡. Hoy miro al cielo, pon los pies en el suelo porque ser humano es lo que quiero ser, con mis manos y lo alcanzare, ser humano es lo que quiero ser (¬que quiero ser!) con mis manos yo lo alcanzare. son las cosas de la vida nunca me acostumbraré... no lo haré, no lo haré casi siempre es una herida que tu corazón no ve... que no ve, que no ve hoy... como siempre solamente pienso en ti y esta noche que pasa lenta, rozándome, trato de afrontarla aferrarla y derrapo en las curvas de tu corazón porque quiero provocarla y que sepas que... estoy pensando en ti estoy pensando en mí ya ves... ya ves
Este fichero es trabajo propio de su transcriptor y representa su interpretación personal de la canción. El material contenido en esta página es
para exclusivo uso privado, por lo que se prohibe su reproducción o retransmisión, así como su uso para fines comerciales.

© LaCuerda.net · Aviso Legal · Privacidad