Tablatura para Guitarra de Enrique Iglesias: El Perdedor
Conexión · Inscripción
Letras y Acordes
Pantalla Completa
Imprimir
Versión Texto
Añadir Favorito
Otras Versiones

Mostrar Diagramas
Desfile Automático
Manipular Acordes
Formato del Texto

Enrique Iglesias
El Perdedor(TAB)
calidad:
eigl0633
AUTOR: Enrique Iglesias  corregir
ALBUM: desconocido
Enviado por Agustín
Hola a todos, aqui les dejo una pequeña modificación que me gusto mas...
Tiene un intro y el arpegio completo de cuando canta Enrique Iglesias
Espero que les guste... Cualquier sugerencia envíenme un mensaje a mi
Facebook Agustin Nicolo

Nota: La guitarra debe estar afinada 1/2 tono abajo, osea en D#


===========================================================================

Intro (Arpegio): Se hace solo una vez cada acorde y empieza la 1° estrofa


          Am            G (Modificado)
e|----------0-------0--|---------0------|
B|------1-------1------|-----0-------0--|   Nota: Este G esta modificado,
G|----2---2---2---2----|---0---0---0----|         solamente se presiona
D|---------------------|----------------|         la cuerda E o cuerda 6
A|--0------------------|----------------|
E|---------------------|--3-------------|


    Em         Em7          F
e|---------------------|----------------|
B|----------0-------3--|----------1-----|
G|------0-------0------|------2-------2-|
D|----2---2---2---2----|----3---3---3---|
A|---------------------|----------------|
E|--0------------------|--1-------------|



===========================================================================

Nota: Este es el arpegio que se utiliza en la 1° estrofa

      Am             G       Em         Em7          F
e|----------0--|---------0--|---------------------|----------------|
B|------1------|-----0------|----------0-------3--|----------1-----|
G|----2---2----|---0---0----|------0-------0------|------2-------2-|
D|-------------|------------|----2---2---2---2----|----3---3---3---|
A|--0----------|------------|---------------------|----------------|
E|-------------|--3---------|--0------------------|--1-------------|



Nota: Este es el arpegio que se utiliza en la 2° estrofa

      Am          G (Modificado)      Em    Em7         F
e|----------0--|------------------------|-------------|----------------|
B|------1------|----------0-------1p0---|----------3--|----------1-----|
G|----2---2----|------0-------0-------0-|------0------|------2-------2-|
D|-------------|----0---0---0---0-------|----2---0----|----3---3---3---|
A|--0----------|------------------------|-------------|----------------|
E|-------------|--3---------------------|--0----------|--1-------------|



Nota: Este arpegio el el que lleva el coro

       C6add9                 G
e|----------3----------|----------3----------|
B|------3-------3---3--|------3-------3---3--|
G|----0---0---0---0----|----0---0---0---0----|
D|---------------------|---------------------|
A|--3------------------|--2------------------|
E|---------------------|---------------------|


        Am7                G (Modificado)         F
e|----------0----------|-------------------------|-----------------|
B|------1-------1---1--|----------0-------1p0----|----------1------|
G|----0---0---0---0----|------0-------0-------0--|------2-------2--|
D|---------------------|----0---0---0---0--------|----3---3---3----|
A|--0------------------|-------------------------|-----------------|
E|---------------------|--3----------------------|--1--------------|



Estrofa 1°: (Arpegio) (Enrique Iglesias)

 Am
Qué más quieres de mí
                                 G
Si el pasado está a prueba de tu amor
      Em
Y no tengo el valor
                             F
De escapar para siempre del dolor


Estrofa 2°: (Arpegio) (Enrique Iglesias)

 Am
Demasiado pedir
                            G
Que sigamos en esta hipocresía
      Em
Cuánto tiempo más podré vivir
               F
En la misma mentira


Coro: (Arpegio) (Enrique Iglesias)

 C6add9                   G
No, no vayas presumiendo, no
                    Am7
Que me has robado el corazón
               G
Y no me queda nada más
 C6add9                 G
Si, prefiero ser el perdedor
                   Am7
Que te lo ha dado todo
               G
Y no me queda nada más
         F
No me queda más...


Estrofa 3°: (Rasgueo) (Marco Antonio Solís)

 Am
Ya no puedo seguir
                              G
Resistiendo esa extraña sensación
        Em
Que me hiela la piel
                          F
Como invierno fuera de estación


Estrofa 4°: (Rasgueo) (Marco Antonio Solís)

 Am
Tú mirada y la mía
                       G
Ignorándose en una lejanía
      Em
Todo pierde sentido
                             F
Y es mejor el vacío que el olvido


Precoro: (Rasgueo) (Enrique Iglesias y Marco Antonio Solís)

            F
Yo prefiero dejarte partir
                G
Que ser tu prisionero
   F
Y no vayas por ahí
                               G
Diciendo ser la dueña de mis sentimientos


Coro: (Rasgueo)

 C6add9                  G
No, no vayas presumiendo, no
                   Am7
Que me has robado el corazón
            G
Y no me queda nada más
 C6add9                  G
Si, prefiero ser el perdedor
  Am7
Que te lo ha dado todo
            G
Y no me queda nada más

 C6add9                  G
No, no vayas presumiendo, no
                   Am7
Que me has robado el corazón
            G
Y no me queda nada más
 C6add9                  G
Si, prefiero ser un perdedor
  Am7
Que te lo ha dado todo
            G
Y no me queda nada más
         F
No me queda nada mas...


Final: (Arpegio) (Lleva el Arpegio de de la 1° estrofa)

 Am
Qué más quieres de mí
                               G
Si el pasado está a prueba de tu amor
Envía el tono de "El Perdedor" a tu celular/móvil
Este fichero es trabajo propio de su transcriptor y representa su interpretación personal de la canción. El material contenido en esta página es
para exclusivo uso privado, por lo que se prohibe su reproducción o retransmisión, así como su uso para fines comerciales.
© LaCuerda.net · Aviso Legal · Privacidad