Tablatura para Guitarra de Enrique Iglesias: Bailando
Conexión · Inscripción
Letras y Acordes
Pantalla Completa
Imprimir
Versión Texto
Añadir Favorito
Otras Versiones

Mostrar Diagramas
Desfile Automático
Manipular Acordes
Formato del Texto

Enrique Iglesias
Bailando(TAB)
calidad:
eigl0648
AUTOR: Gente de zona
ALBUM: desconocido (2013)
Enviado por Víctor
[INTRO]

                  Em         C                  G                     D
e|--------------------------------------------------------------------------
B|---5-7-7(8)-7(5)-8---7-8-7-5---5-7-7(8)-7-5-8-------------------8-7-8(7)--
G|----------------------------------------------7-7-7-9-7-7---7-7-----------
D|----------------------------------------------------------9---------------
A|--------------------------------------------------------------------------
E|--------------------------------------------------------------------------

               Em                C               G                        D
e|---3-5-7-5-3-7---5-5-3-7---5-3-3---8-8-8-10-8-10(8)-7-7-------8-8-7-7-5-5-
B|---5-7-8-7-5-8---7-7-5-8---7-5-5---8-8-8-8--8-8-----8-8-8-8---8-8-8-8-7-7-
G|--------------------------------------------------------7-7---------------
D|--------------------------------------------------------7-7---------------
A|--------------------------------------------------------------------------
E|--------------------------------------------------------------------------

e|---3-3-2-2----------------------------------------------------------------
B|---5-5-3-3----------------------------------------------------------------
G|--------------------------------------------------------------------------
D|--------------------------------------------------------------------------
A|--------------------------------------------------------------------------
E|--------------------------------------------------------------------------

NOTA: en las estrofas los acordes se arpegian
en el momento que indico y de la siguiente forma
    Em               C               G                  D
e|---------7-------7-------8-------8--------------------------2-------3-2-0---
B|-------8-------8-------8-------8---------8----------8-----3-------3---------
G|-----9-------9-------9-------9---------7----------7-----2-------2---------2-
D|-------------------------------------9----------9-----0-------0-------------
A|---7-------7-----------------------10--------10-----------------------------
E|-------------------8-------8------------------------------------------------
Em               C               G                  D
e|---------7-------7-------8-------8--------------------------2-------3-2-0---
B|-------8-------8-------8-------8---------8----------8-----3-------3-------3-
G|-----9-------9-------9-------9---------7----------7-----2-------2-----------
D|-------------------------------------9----------9-----0-------0-------------
A|---7-------7-----------------------10--------10-----------------------------
E|-------------------8-------8------------------------------------------------

[ESTROFA]

Em                                 C
Yo te miro, se me corta la respiración
G                                    D
Cuanto tu me miras se me sube el corazón(Me palpita lento el corazón)
E                                  C
Y en silencio tu mirada dice mil palabras
G                                             D
La noche en la que te suplico que no salga el sol

[PUENTE]
    Am                  C
(Bailando, bailando, bailando, bailando)
                 Em
Tu cuerpo y el mío llenando el vacío
                                 D
Subiendo y bajando (subiendo y bajando)
    Am                  C
(Bailando, bailando, bailando, bailando)
                 Em
Ese fuego por dentro me está enloqueciendo
          D
Me va saturando...

[PUENTE 2]
                   Em
Con tu física y tu química también tu anatomía
                  C
La cerveza y el tequila y tu boca con la mía
            G
Ya no puedo mas (ya no puedo mas)
            D
Ya no puedo mas (ya no puedo mas)
             Em
Con esta melodía, tu color, tu fantasía
             C
Con tu filosofía mi cabeza está vacía
              G
Y ya no puedo mas (ya no puedo mas)
            D
Ya no puedo mas (ya no puedo mas)

[ESTRIBILLO]
                   Em
Yo quiero estar contigo, vivir contigo
          C
Bailar contigo, tener contigo
          G
Una noche loca (una noche loca)
            D
Ay besar tu boca (y besar tu boca)
                   Em
Yo quiero estar contigo, vivir contigo
          C
Bailar contigo, tener contigo
          G                 D
una noche loca con tremenda nota
    Em      C      G      D
(Ooooh, ooooh, ooooh, ooooh)

[ESTROFA 2]

Em                                  C
Tu me miras y me llevas a otra dimensión(Estoy en otra dimensión)
G                              D
Tus latidos aceleran a mi corazón(Tu latidos aceleran a mi corazón)
Em                                C
Que ironía del destino no poder tocarte
    G                               D
Abrazarte y sentir la magia de tu olor

[PUENTE]

   Am                   C
(Bailando, bailando, bailando, bailando)
               Em
Tu cuerpo y el mío llenando el vacío
Subiendo y bajando (subiendo y bajando)
Am                      C
(Bailando, bailando, bailando, bailando)
                Em
Ese fuego por dentro me está enloqueciendo
Me va saturando...

[PUENTE 2]

                   Em
Con tu física y tu química también tu anatomía
                   C
La cerveza y el tequila y tu boca con la mía
            G
Ya no puedo mas (ya no puedo mas)
            D
Ya no puedo mas (ya no puedo mas)
             Em
Con esta melodía, tu color, tu fantasía
             C
Con tu filosofía mi cabeza esta vacía
              Em
Y ya no puedo mas (ya no puedo mas)
            D
Ya no puedo mas (ya no puedo mas)

[ESTRIBILLO]

                   Em
Yo quiero estar contigo, vivir contigo
          C
Bailar contigo, tener contigo
          G
Una noche loca (una noche loca)
            D
Ay besar tu boca (y besar tu boca)
                  Em
Yo quiero estar contigo, vivir contigo
          C
Bailar contigo, tener contigo
           G                 D
 una noche loca con tremenda nota

[FIN]

    Em      C      G      D
(Ooooh, ooooh, ooooh, ooooh)
    Em      C      G      D
(Ooooh, ooooh, ooooh, ooooh)
    Em      C      G      D
(Ooooh, ooooh, ooooh, ooooh)Bailando amor,
                            bailando amor
                            es que se me va el dolor
     Em rasgueando
e|-------------0-------
B|-----------0---------
G|---------0-----------
D|-------2-------------
A|-----2---------------
E|---0-----------------
Este fichero es trabajo propio de su transcriptor y representa su interpretación personal de la canción. El material contenido en esta página es
para exclusivo uso privado, por lo que se prohibe su reproducción o retransmisión, así como su uso para fines comerciales.
© LaCuerda.net · Aviso Legal · Privacidad