Tablatura para Guitarra de Enrique Iglesias: Bailando
Conexión · Inscripción
Letras y Acordes
Pantalla Completa
Imprimir
Versión Texto
Añadir Favorito
Otras Versiones

Mostrar Diagramas
Desfile Automático
Manipular Acordes
Formato del Texto


Enrique Iglesias
Bailando(TAB)
calidad:
eigl0646
AUTOR: Gente de zona
ALBUM: desconocido (2013)
Enviado por Rammag09
INTRO:


E||-0--2--2h3--2--0--3---2--3h2h0----------------------|
B||----------------------------------------------------|
G||----------------------------------------------------|
D||----------------------------------------------------|
A||----------------------------------------------------|
E||----------------------------------------------------|


E||-0--2--2h3--2-0-3---------0----------------3--2--1h2|
B||------------------3--3--3----3--3--0--3--3----------|
G||----------------------------------------------------|
D||----------------------------------------------------|
A||----------------------------------------------------|
E||----------------------------------------------------|


E||-3---5---7---5---3---7----5---3---7----5---3---3----|
B||-5---7---8---7---5---8----7---5---8----7---5---5----|
G||----------------------------------------------------|
D||----------------------------------------------------|
A||----------------------------------------------------|
E||----------------------------------------------------|

E||-8---8---8---10---8---7---7-------------------------|
B||-8---8---8---10---8---8---8---3---3-----------------|
G||------------------------------4---4-----------------|
D||----------------------------------------------------|
A||----------------------------------------------------|
E||----------------------------------------------------|

E||-8---8---7---7---5---5/(3)---3---3---2--------------|
B||-8---8---8---8---7---7/(5)---5---5---3--------------|
G||----------------------------------------------------|
D||----------------------------------------------------|
A||----------------------------------------------------|
E||----------------------------------------------------|


ESTROFA:

MIm DO Yo te miro, se me corta la respiración
SOL RE Cuanto tu me miras se me sube el corazón (Me palpita lento el corazón)
MIm DO Y en silencio tu mirada dice mil palabras
SOL RE La noche en la que te suplico que no salga el sol PRECORO:
LAm DO (Bailando, bailando, bailando, bailando)
MIm Tu cuerpo y el mío llenando el vacío
RE Subiendo y bajando (subiendo y bajando)
LAm DO (Bailando, bailando, bailando, bailando)
MIm Ese fuego por dentro me está enloqueciendo
RE Me va saturando.
MIm Con tu física y tu química también tu anatomía
DO La cerveza y el tequila y tu boca con la mía
SOL Ya no puedo mas (ya no puedo mas)
RE Ya no puedo mas (ya no puedo mas)
MIm Con esta melodía, tu color, tu fantasía
DO Con tu filosofía mi cabeza está vacía
SOL Y ya no puedo mas (ya no puedo mas)
RE Ya no puedo mas (ya no puedo mas) CORO:
MIm Yo quiero estar contigo, vivir contigo
DO Bailar contigo, tener contigo
SOL Una noche loca (una noche loca)
RE Ay besar tu boca (y besar tu boca)
MIm Yo quiero estar contigo, vivir contigo
RE SOL Bailar contigo, tener contigo una noche loca
RE Con tremenda loca
MIm DO SOL RE (Ooooh, ooooh, ooooh, ooooh)
MIm DO Tu me miras y me llevas a otra dimensión (Estoy en otra dimensión)
SOL RE Tu latidos aceleran a mi corazón (Tu latidos aceleran a mi corazón)
MIm DO Que ironía del destino no poder tocarte
SOL RE Abrazarte y sentir la magia de tu olor
LAm DO (Bailando, bailando, bailando, bailando)
MIm Tu cuerpo y el mío llenando el vacío
RE Subiendo y bajando (subiendo y bajando)
LAm DO (Bailando, bailando, bailando, bailando)
MIm Ese fuego por dentro me está enloqueciendo
RE Me va saturando
MIm Con tu física y tu química también tu anatomía
DO La cerveza y el tequila y tu boca con la mía
SOL Ya no puedo mas (ya no puedo mas)
RE Ya no puedo mas (ya no puedo mas)
MIm Con esta melodía, tu color, tu fantasía
DO Con tu filosofía mi cabeza está vacía
SOL Y ya no puedo mas (ya no puedo mas)
RE Ya no puedo mas (ya no puedo mas)
MIm Yo quiero estar contigo, vivir contigo
DO Bailar contigo, tener contigo
SOL Una noche loca (una noche loca)
RE Ay besar tu boca (y besar tu boca)
MIm Yo quiero estar contigo, vivir contigo
RE SOL Bailar contigo, tener contigo una noche loca
RE Con tremenda loca
MIm DO SOL RE (Ooooh, ooooh, ooooh, ooooh
MIm DO SOL RE Ooooh, ooooh, ooooh, ooooh
MIm DO Ooooh bailando amor ooooh
SOL Bailando amor ooooh es que se me va el dolor
RE Ooooh).
MIm
Este fichero es trabajo propio de su transcriptor y representa su interpretación personal de la canción. El material contenido en esta página es
para exclusivo uso privado, por lo que se prohibe su reproducción o retransmisión, así como su uso para fines comerciales.
© LaCuerda.net · Aviso Legal · Privacidad