Tablatura para Guitarra de Enrique Iglesias: Bailando
Conexión · Inscripción
Letras y Acordes
Pantalla Completa
Imprimir
Versión Texto
Añadir Favorito
Otras Versiones

Mostrar Diagramas
Desfile Automático
Manipular Acordes
Formato del Texto


Enrique Iglesias
Bailando(TAB)
calidad:
eigl0645
AUTOR: Gente de zona
ALBUM: desconocido (2013)
Enviado por Josue
ESTE ES TEMA BUENÍSIMO
CUALQUIER DUDA: jos_rm@live.com
espero les guste!!!

INTRO:
                   Em               C
e|--------------------------------------|
B|-----7-7/8-7------~8------7---8-7-----|
G|--9----------9--------------------9---|
D|--------------------------------------|
A|--------------------------------------|
E|--------------------------------------|

                 G                  D
e|----------------------------------------|
B|-----7-7/8-7---8---------------7/8-7-7--|
G|--9----------9---7-7-9-7---7-7----------|
D|-------------------------9--------------|
A|----------------------------------------|
E|----------------------------------------|

            Em                 C
e|-3-5-7-5-3-7---5-5-3-7---5-3-3--------|
B|-5-7-8-7-5-8---7-7-5-8---7-5-5--------|
G|--------------------------------------|
D|--------------------------------------|
A|--------------------------------------|
E|--------------------------------------|
              G
e|-8-8-8-10-8-8-7-7---------|
B|-8-8-8-10-8-8-8-8-8-8-----|
G|------------------9-9-----|
D|--------------------------|
A|--------------------------|
E|--------------------------|
             D
e|-8-8-7-7-5-5----3-3-2-2-----|
B|-8-8-8-8-7-7----5-5-3-3-----|
G|----------------------------|
D|----------------------------|
A|----------------------------|
E|----------------------------|

Em                                 C
Yo te miro, se me corta la respiración
G                                     D
Cuanto tu me miras se me sube el corazón
(Me palpita lento el corazon)
Em                                 C
Y en silencio tu mirada dice mil palabras
G                                             D
La noche en la que te suplico que no salga el sol

    Am                  C
Bailando (bailando), bailando (bailando)
               G
Tu cuerpo y el mio llenando el vacío
             D
Subiendo y bajando (subiendo y bajando)
    Am                  C
Bailando (bailando), bailando (bailando)
               G
Ese fuego por dentro me esta enloqueciendo
          D
Me va saturando

                   Em
Con tu física y tu química también tu anatomía
                  C
La cerveza y el tequila y tu boca con la mía
               G
Y ya no puedo más (ya no puedo más)
            D
Ya no puedo más (ya no puedo más)

             Em
Con esta melodía, tu color, tu fantasía
               C
Y con tu filosofía mi cabeza esta vacía
              G
Y ya no puedo más (ya no puedo más)
            D
Ya no puedo más (ya no puedo más)

                   Em
Yo quiero estar contigo, vivir contigo
          D
Bailar contigo, tener contigo
          G
Una noche loca (una noche loca)
            D
Ay besar tu boca (y besar tu boca)

                   Em
Yo quiero estar contigo, vivir contigo
          C                             G
Bailar contigo, tener contigo una noche loca
             D
Con tremenda loca
    Em     C      G      D
(Ooooh, ooooh, ooooh, ooooh)


SE REPITEN LOS ACORDES

Tu me miras y me llevas a otra dimensión

(Estoy en otra dimensión)
Tu latidos aceleran a mi corazón
(Tu latidos aceleran a mi corazón)
Que ironía del destino no poder tocarte
Abrazarte y sentir la magia de tu olor

(Bailando, bailando, bailando, bailando)
Tu cuerpo y el mio llenando el vacío
Subiendo y bajando (subiendo y bajando)
(Bailando, bailando, bailando, bailando)
Ese fuego por dentro me esta enloqueciendo
Me va saturando

Con tu física y tu química también tu anatomía
La cerveza y el tequila y tu boca con la mía
Ya no puedo mas (ya no puedo mas)
Ya no puedo mas (ya no puedo mas)
Con esta melodía, tu color, tu fantasía
Con tu filosofía mi cabeza esta vacía
Y ya no puedo mas (ya no puedo mas)
Ya no puedo mas (ya no puedo mas)

Yo quiero estar contigo, vivir contigo
Bailar contigo, tener contigo
Una noche loca (una noche loca)
Ay besar tu boca (y besar tu boca)
Yo quiero estar contigo, vivir contigo
Bailar contigo, tener contigo una noche loca
Con tremenda loca

(Ooooh, ooooh, ooooh, ooooh
Ooooh, ooooh, ooooh, ooooh
Ooooh bailando amor ooooh
Bailando amor ooooh es que se me va el dolor
Ooooh).

SALUDOS DESDE TARIJA =)
Este fichero es trabajo propio de su transcriptor y representa su interpretación personal de la canción. El material contenido en esta página es
para exclusivo uso privado, por lo que se prohibe su reproducción o retransmisión, así como su uso para fines comerciales.
© LaCuerda.net · Aviso Legal · Privacidad