Tablatura para Bajo de Enrique Guzmán: Popotitos
Conexión · Inscripción
Letras y Acordes
Pantalla Completa
Imprimir
Versión Texto
Añadir Favorito
Otras Versiones

Mostrar Diagramas
Desfile Automático
Formato del Texto

Enrique Guzmán
Popotitos(BAJ)
calidad:
eguz0243
AUTOR: A. Martinez, Larry Williams
ALBUM: Idolos Del Rock & Roll: 10 Exitos - Enrique Guzman Y Teen Top's
Enviado por luis
INTRO


G|---------------------------------|---------------------------------|
D|---------------------------------|---------------------------------|
A|---------------------------------|---------------------------------|
E|---------------------------------|-----------------7-7-7---7-7-7-7-|


G|---------------------------------|---------------------------------|
D|---------------------------------|---------------------------------|
A|---------------------------------|---------------------------------|
E|-7-7-7-7-7-7-7-7-7-7-7-7-7-7-7-6-|-5-5-5-5-5-5-5-5-5---5-5---------|


G|---------------------------------|---------------------------------|
D|-----------------------------2---|-----2---------------------------|
A|-----------------2---4-----------|---------5---4---2---2---4---2---|
E|-0---0---3---4-------------------|---------------------------------|


G|---------------------------------|---------------------------------|
D|-----------------------------2---|-----2---------------------------|
A|-----------------2---4-----------|---------5---4---2---2---4---2---|
E|-0---0---3---4-------------------|---------------------------------|


VERSE


G|---------------------------------|---------------------------------|
D|---------------------------------|---------------------------------|
A|-----------------2---2---4---2---|-----------------2---2---4---2---|
E|-0-------4-----------------------|-0-------4-----------------------|


G|---------------------------------|---------------------------------|
D|-----------------------------2---|-----2---------------------------|
A|-----------------2---4-----------|---------5---4---2---2---4---2---|
E|-0---0---3---4-------------------|---------------------------------|


G|---------------------------------|---------------------------------|
D|---------------------------------|---------------------------------|
A|-----------------2---2---4---2---|-----------------2---2---4---2---|
E|-0-------4-----------------------|-0-------4-----------------------|


G|---------------------------------|---------------------------------|
D|-----------------------------2---|-----2---------------------------|
A|-----------------2---4-----------|---------5---4---2---2---4---2---|
E|-0---0---3---4-------------------|---------------------------------|


G|---------------------------------|---------------------------------|
D|-----------------2---2---4---2---|-----------------2---2---4---2---|
A|-0-------4-----------------------|-0-------4-----------------------|
E|---------------------------------|---------------------------------|


G|-----------------------------2---|-----2---------------------------|
D|-----------------2---4-----------|---------5---4---2---2---4---2---|
A|-0---0---3---4-------------------|---------------------------------|
E|---------------------------------|---------------------------------|


G|---------------------------------|---------------------------------|
D|---------------------------------|---------------------------------|
A|-----------------2---2---4---2---|-----------------2---2---4---2---|
E|-0-------4-----------------------|-0-------4-----------------------|


G|---------------------------------|---------------------------------|
D|-----------------------------2---|-----2---------------------------|
A|-----------------2---4-----------|---------5---4---2---2---4---2---|
E|-0---0---3---4-------------------|---------------------------------|


CHORUS


G|---------------------------------|---------------------------------|
D|---------------------------------|---------------------------------|
A|---------------------------------|---------------------------------|
E|-7-------7-------7-------7-------|-5-------5-------5-------5-------|


G|---------------------------------|---------------------------------|
D|---------------------------------|---------------------------------|
A|---------------------------------|---------------------------------|
E|-7-------7-------7-------7-------|-5-------5-------5-------5-------|


G|---------------------------------|---------------------------------|
D|---------------------------------|---------------------------------|
A|---------------------------------|-----------------------------2---|
E|-0-------0-------0-------0-------|-0-------0-------0---0---4-------|


G|---------------------------------|---------------------------------|
D|-----------------------------2---|-----2---------------------------|
A|-----------------2---4-----------|---------5---4---2---2---4---2---|
E|-0---0---3---4-------------------|---------------------------------|


VERSE


G|---------------------------------|---------------------------------|
D|---------------------------------|---------------------------------|
A|-----------------2-------4---2---|-----------------2-------4---2---|
E|-0-------4-----------------------|-0-------4-----------------------|


G|---------------------------------|---------------------------------|
D|-----------------------------2---|-----2---------------------------|
A|-----------------2---4-----------|---------5---4---2---2---4---2---|
E|-0---0---3---4-------------------|---------------------------------|


G|---------------------------------|---------------------------------|
D|---------------------------------|---------------------------------|
A|-----------------2---2---4---2---|-----------------2---2---4---2---|
E|-0-------4-----------------------|-0-------4-----------------------|


G|---------------------------------|---------------------------------|
D|-----------------------------2---|-----2---------------------------|
A|-----------------2---4-----------|---------5---4---2---2---4---2---|
E|-0---0---3---4-------------------|---------------------------------|


G|---------------------------------|---------------------------------|
D|-----------------2---2---4---2---|-----------------2---2---4---2---|
A|-0-------4-----------------------|-0-------4-----------------------|
E|---------------------------------|---------------------------------|


G|-----------------------------2---|-----2---------------------------|
D|-----------------2---4-----------|---------5---4---2---2---4---2---|
A|-0---0---3---4-------------------|---------------------------------|
E|---------------------------------|---------------------------------|


G|---------------------------------|---------------------------------|
D|---------------------------------|---------------------------------|
A|-----------------2-------4---2---|-----------------2-------4---2---|
E|-0-------4-----------------------|-0-------4-----------------------|


G|---------------------------------|---------------------------------|
D|-----------------------------2---|-----2---------------------------|
A|-----------------2---4-----------|---------5---4---2---2---4---2---|
E|-0---0---3---4-------------------|---------------------------------|


CHORUS


G|---------------------------------|---------------------------------|
D|---------------------------------|---------------------------------|
A|---------------------------------|---------------------------------|
E|-7-------7-------7-------7-------|-5-------5-------5-------5-------|


G|---------------------------------|---------------------------------|
D|---------------------------------|---------------------------------|
A|---------------------------------|---------------------------------|
E|-7-------7-------7-------7-------|-5-------5-------5-------5-------|


G|---------------------------------|---------------------------------|
D|---------------------------------|---------------------------------|
A|---------------------------------|---------------------------------|
E|-0-------0-------0-------0-------|-0-------0-------0-------0-------|


G|---------------------------------|---------------------------------|
D|-----------------------------2---|-----2---------------------------|
A|-----------------2---4-----------|---------5---4---2---2---4---2---|
E|-0---0---3---4-------------------|---------------------------------|


GUITAR SOLO


G|---------------------------------|---------------------------------|
D|---------------------------------|---------------------------------|
A|-----------------2---2---4---2---|-----------------2---2---4---2---|
E|-0---0---4---4-------------------|-0---0---4---4-------------------|


G|---------------------------------|---------------------------------|
D|---------------------------------|---------------------------------|
A|-----------------2---2---4---2---|-----------------2-------4---2---|
E|-0---0---4---4-------------------|-0---0---4---4-------------------|


G|---------------------------------|-11--11--9---11--7---7---6---6---|
D|-----------------2---2---4---2---|---------------------------------|
A|-0---0---4---4-------------------|---------------------------------|
E|---------------------------------|---------------------------------|


G|---------------------------------|---------------------------------|
D|---------------------------------|---------------------------------|
A|-----------------2---2---4---2---|-----------------2---2---4---2---|
E|-0-------4-----------------------|-0-------4-----------------------|


G|---------------------------------|---------------------------------|
D|---------------------------------|---------------------------------|
A|---------------------------------|---------------------------------|
E|-7-------7-------x-------7-------|-5-------5-------5-------5-------|


G|---------------------------------|---------------------------------|
D|-----------------------------2---|-----2---------------------------|
A|-----------------2---4-----------|---------5---4---2---2---4---2---|
E|-0---0---3---4-------------------|---------------------------------|


VERSE


G|---------------------------------|---------------------------------|
D|---------------------------------|---------------------------------|
A|-----------------2-------4---2---|-----------------2-------4---2---|
E|-0-------4-----------------------|-0-------4-----------------------|


G|---------------------------------|---------------------------------|
D|-----------------------------2---|-----2---------------------------|
A|-----------------2---4-----------|---------5---4---2---2---4---2---|
E|-0---0---3---4-------------------|---------------------------------|


G|---------------------------------|---------------------------------|
D|---------------------------------|---------------------------------|
A|-----------------2-------4---2---|-----------------2-------4---2---|
E|-0-------4-----------------------|-0-------4-----------------------|


G|---------------------------------|---------------------------------|
D|-----------------------------2---|-----2---------------------------|
A|-----------------2---4-----------|---------5---4---2---2---4---2---|
E|-0---0---3---4-------------------|---------------------------------|


G|---------------------------------|---------------------------------|
D|-----------------2-------4---2---|-----------------2-------4---2---|
A|-0-------4-----------------------|-0-------4-----------------------|
E|---------------------------------|---------------------------------|


G|-----------------------------2---|-----2---------------------------|
D|-----------------2---4-----------|---------5---4---2---2---4---2---|
A|-0---0---3---4-------------------|---------------------------------|
E|---------------------------------|---------------------------------|


G|---------------------------------|---------------------------------|
D|---------------------------------|---------------------------------|
A|-----------------2-------4-------|-----------------2-------4-------|
E|-0-------4-----------------------|-0-------4-----------------------|


G|---------------------------------|---------------------------------|
D|-----------------------------2---|-----2---------------------------|
A|-----------------2---4-----------|---------5---4---2---2---4---2---|
E|-0---0---3---4-------------------|---------------------------------|


CHORUS


G|---------------------------------|---------------------------------|
D|---------------------------------|---------------------------------|
A|---------------------------------|---------------------------------|
E|-7-------7-------7-------7-------|-5-------5-------5-------5-------|


G|---------------------------------|---------------------------------|
D|---------------------------------|---------------------------------|
A|---------------------------------|---------------------------------|
E|-7-------7-------7-------7-------|-5-------5-------5-------5-------|


G|---------------------------------|---------------------------------|
D|---------------------------------|---------------------------------|
A|---------------------------------|---------------------------------|
E|-0-------0-------0-------0-------|-0-------0-------0-------0-------|


G|---------------------------------|---------------------------------|
D|-----------------------------2---|-----2---------------------------|
A|-----------------2---4-----------|---------5---4---2---2---4---2---|
E|-0---0---3---4-------------------|---------------------------------|


BASS SOLO


G|---------------------------------|---------------------------------|
D|---------------------------------|---------------------------------|
A|---------------------------------|---------------------------------|
E|-7-7-7-7-7-7-7-7-7-7-7-7-7-7---6-|-5-5-5-5-5-5-5-5-5-5-------------|


G|---------------------------------|---------------------------------|
D|-----------------------------2---|-----2---------------------------|
A|-----------------2---4-----------|---------5---4---2---2---4---2---|
E|-0---0---3---4-------------------|---------------------------------|


OUTRO


G|---------------------------------|---------------------------------|
D|-----------------------------2---|-----2---------------------------|
A|-----------------2---4-----------|---------5---4---2---2---4---2---|
E|-0---0---3---4-------------------|---------------------------------|


G|---------------------------------|---------------------------------|
D|-----------------------------2---|-----2---------------------------|
A|-----------------2---4-----------|---------5---4---2---2---4---2---|
E|-0---0---3---4-------------------|---------------------------------|


G|---------------------------------|---------------------------------|
D|-----------------------------2---|-----2---------------------------|
A|-----------------2---4-----------|---------5---4---2---2---4---2---|
E|-0---0---3---4-------------------|---------------------------------|
                                                             FADE OUT
Envía el tono de "Popotitos" a tu celular/móvil
Este fichero es trabajo propio de su transcriptor y representa su interpretación personal de la canción. El material contenido en esta página es
para exclusivo uso privado, por lo que se prohibe su reproducción o retransmisión, así como su uso para fines comerciales.
© LaCuerda.net · Aviso Legal · Privacidad