Letra y Acordes de Enrique Bunbury: Frente a frente
Conexión · Inscripción
Letras y Acordes
Pantalla Completa
Imprimir
Versión Texto
Añadir Favorito
Otras Versiones

Mostrar Diagramas
Desfile Automático
Manipular Acordes
Formato del Texto

Enrique Bunbury
Frente a frente
calidad:
enri1646
AUTOR: Jeanette
ALBUM: Las Consecuencias (2010)
Enviado por Hector
Intro:

     Gm  D7
     Gm  D7


Gm D7           Gm D7              F
Queda, que poco queda de nuestro amor
             A#                D
apenas queda nada, apenas ni palabras
D
quedan...
Gm D7            Gm D7               F
Queda, solo el silencio que hace estallar
                A#                      D
la noche fría y larga, la noche que no acaba
D        Gm
solo eso queda...


      Gm         F          D#      F
Solo quedan las ganas de llorar, al ver que
                 A# / D
nuestro amor se aleja.
           Gm       F
Frente a frente, bajamos
      D#        F                         A#
la mirada, pues ya no queda nada de que hablar.
D
Nada...


Gm D7          Gm D7           F
Queda, poca ternura, y alguna vez, haciendo
       A#                    D
una locura, un beso y a la fuerza,
D
queda...
Gm D7            Gm D7           F
Queda, un gesto amable para no hacer la vida
       A#                      D
insoportable y así ahogar las penas
D        Gm
solo eso queda...


        Gm         F          D#      F
Solo quedan las ganas de llorar, al ver que
                 A# / D
nuestro amor se aleja.
           Gm       F
Frente a frente, bajamos
      D#        F                         A#
la mirada, pues ya no queda nada de que hablar.
D
Nada...




        Gm         F          D#      F
Solo quedan las ganas de llorar, al ver que
                 A# / D
nuestro amor se aleja.
           Gm       F
Frente a frente, bajamos
      D#        F                         A#
la mirada, pues ya no queda nada de que hablar.
D
Nada...


  Gm        F            D#       F                 A# D
1|----------10--------------------11-------18-17---------
2|-11-10-11----11-10-11--11-10-11----11-10-------18-15---
3|-------------------------------------------------------
4|-------------------------------------------------------
5|-------------------------------------------------------
6|-------------------------------------------------------


  Gm        F            D#       F                 A# D...
1|----------10--------------------11-------18-17---------
2|-11-10-11----11-10-11--11-10-11----11-10-------18-15---
3|-------------------------------------------------------
4|-------------------------------------------------------
5|-------------------------------------------------------
6|-------------------------------------------------------

Gm

Hèctor
Envía el tono de "Frente a frente" a tu celular/móvil
Este fichero es trabajo propio de su transcriptor y representa su interpretación personal de la canción. El material contenido en esta página es
para exclusivo uso privado, por lo que se prohibe su reproducción o retransmisión, así como su uso para fines comerciales.
© LaCuerda.net · Aviso Legal · Privacidad