Tablatura para Guitarra de Enanitos Verdes: Y me alejé de tí
Conexión · Inscripción
Letras y Acordes
Pantalla Completa
Imprimir
Versión Texto
Añadir Favorito
Otras Versiones

Mostrar Diagramas
Desfile Automático
Manipular Acordes
Formato del Texto

Enanitos Verdes
Y me alejé de tí(TAB)
calidad:
enan1441
AUTOR: Enanitos Verdes
ALBUM: Habitaciones Extrañas (1987)
Enviado por nicolas
bueno...aca dejo tema muy solicitado que estuve buscando
por todos lados y no lo podia encontrar hasta q me di cuenta
q tamb se llama "el che y los rolling stones" y es de los
rancheros..lo copie de una tablatura que esta como compositores
los rancheros pero les va a pasar como yo que la van a seguir
buscando como "y me aleje de ti"...listo ahi va con la intro
y el solo y suena muy bien toda la cancion!!
cualkier cosa para tomar bien los tiempos en youtube
hay un video de un flaco
que lo hace muy bien http://www.youtube.com/watch?v=HIjbd4Ittrg
suerte!


Solo:
e-0---(0)---0-0-0-0--0---(0)---0-0-0
B-3/5-(5)---3-2-0-0--2/3-(3)---2-0--
G----------------------------------2
Lo q esta en parentesis
se repite 7 veces solo eso nada mas

e-0----0-0-0-0-0-0-0--0-0--0-0------
B-2/3--3-3-3-3-3-3-3--2-0-----------
G--------------------------2-2------

A                         Bm
Contra una pared dejé pintados
                      D
Nuestros nombres enlazados
      E            A Asus2 Asus4 A Asus2 A
Salpicados con el aerosol

A                          Bm
Junto a una leyenda que decía
                   D
Escapemos de esta vida,
          E        A Asus2 Asus4 A Asus2 A
Viva el che y los rolLing Stone

Pre-Coro:

G         D     A Asus2 Asus4 A Asus2 A
 Y me aleje de ti
G            D     A     E
 Suerte que te perdí  ohhhhhhhhh

Verso

A                            Bm
Fuimos como una tribu de salvajes
                   D
Defendiendo con coraje
        E        A Asus2 Asus4 A Asus2 A
Lo que dicta el corazón

A                               Bm
Recuerdo bien la tarde en el pasillo
                D
Que sacaste un cuchillo
      E          A Asus2 Asus4 A Asus2 A
Y probamos el dolor

Pre-Coro:

G         D     A Asus2 Asus4 A Asus2 A
 Y me aleje de ti
G            D     A     E
 Suerte que te perdí  ohhhhhhh

Coro:

D            A        E
 Fuiste tan dulce nena
           F#m
Pero a la vez perversa
D               A          E
 Siempre me hablabas de morir

D         A          E
 Y te seguí los pasos
          F#m
Hasta que tu locura
D         A           E
 Me comenzaba a destruir

[Solo]
e-0----0-0-0-0-0-0-0--0-0-0-0--
B-3/5--5-5-5-5-5-5-5--3-2-0-0--
G------------------------------

e-0---0-0-0-0-0-0-0--0-0--0
B-2/3-3-3-3-3-3-3-3--2-0---
G-------------------------2



e-0----0-0-0-0-0-0-0--0-0--0-0--
B-2/3--3-3-3-3-3-3-3--2-0-------
---------------------------2-2--

e-----------------------0------12----12-12-12-12
B---------------------------12-12h14-14-14-14-14
G-4(5)-4p2---2-4(5)-4-2--14---------------------
D----------4------------------------------------

e---12------------------------------------------
B---12-10h12-10h12-12-12-12-12--10----10--------
G----------------------------------11-----------

e-5----5-5-5-5-5--0----0------------------------
B-5/7--7-7-7-7-5--0/2--2------------------------
G------------------------2-4(5)-4p2---2-4(5)-4-2
D-----------------------------------4-----------

Verso

A                             Bm
Fuimos a una iglesia en madrugada
                    D
Estabas tan desesperada
       E              A Asus2 Asus4 A Asus2 A
Creo que querías cambiar

A                              Bm
Y como nadie vino a abrir la puerta
                D
Te diste media vuelta
           E          A Asus2 Asus4 A Asus2 A
Diciendo Dios aquí no estás

Pre-Coro:

G         D     A Asus2 Asus4 A Asus2 A
 Y me aleje de ti
G           D      A     E
 Suerte que te perdí  ohhhhhhhhhhhhhhh

Coro:

D            A        E
 Fuiste tan dulce nena
          F#m
Pero a la vez perversa

D               A            E
 Siempre me hablabas de morir

D         A          E
 Y te seguí los pasos
          F#m
Hasta que tu locura
D         A           E
 Me comenzaba a destruir

Coro:

D            A        E
 Fuiste tan dulce nena
          F#m
Pero a la vez perversa
D               A          E
 Siempre me hablabas de morir

D         A          E
 Y te seguí los pasos
          F#m
Hasta que tu locura
D         A           E
 Me comenzaba a destruir

me comenzaba a destruir

Para finalizar se toca de nuevo el intro
Envía el tono de "Y me alejé de tí" a tu celular/móvil
Este fichero es trabajo propio de su transcriptor y representa su interpretación personal de la canción. El material contenido en esta página es
para exclusivo uso privado, por lo que se prohibe su reproducción o retransmisión, así como su uso para fines comerciales.
© LaCuerda.net · Aviso Legal · Privacidad