Tablatura para Guitarra de Enanitos Verdes: Tu carcel
Conexión · Inscripción
Letras y Acordes
Pantalla Completa
Imprimir
Versión Texto
Añadir Favorito
Otras Versiones

Mostrar Diagramas
Desfile Automático
Manipular Acordes
Formato del Texto

Enanitos Verdes
Tu carcel(TAB)
calidad:
enan1084
AUTOR: Marco Antonio Solís
ALBUM: En Vivo (2004)
Enviado por César
ENANITOS VERDES : TU CARCEL

INTRO

    D                               A                       F#7
e --0/2--2--0-----------0--2--2-----0---0-------------------0--0--
B -------------3----3--3---------3---------3--2----2--2--3--------
G ----------------------------------------------------------------
D ----------------------------------------------------------------
A ----------------------------------------------------------------
E ----------------------------------------------------------------
       Bm            G          E           A
e --------------------------------------------------
B --2--3----3--2--0----0--0--0--0--2--3--2--3h5--5--
G --------------------------------------------------
D --------------------------------------------------
A --------------------------------------------------
E --------------------------------------------------

    D                               A                       F#7
e --0/2--2--0-----------0--2--2-----0---0-------------------0--0--
B -------------3----3--3---------3---------3--2----2--2--3--------
G ----------------------------------------------------------------
D ----------------------------------------------------------------
A ----------------------------------------------------------------
E ----------------------------------------------------------------
       Bm            G          E           A
e --------------------------------------------------
B --2--3----3--2--0----0--0--0--0--2--3--2--3h5--5--
G --------------------------------------------------
D --------------------------------------------------
A --------------------------------------------------
E --------------------------------------------------

D
Te vas amor

Si así lo quieres
    A
Que puedo yo hacer
       F#7       Bm
Tu vanidad no te deja entender
G           E        A
Que en la pobreza se sabe querer

D
Quiero llorar
                  A
Y me destroza que pienses así
          F#7      Bm
Y mas que ahora me quede sin ti
G        E         A
Me duele lo que tú vas a sufrir

D
Pero recuerda
                    A
Nadie es perfecto y tu lo veras
           F#7     Bm
Más de mil cosas mejores tendrás
G         E       A
Pero un cariño sincero jamás

D
Vete olvidando
                     A
Esto que hoy dejas y que cambiaras
           F#7      Bm
Por la aventura que tu ya veras
G       E        A
Será tu cárcel y nunca saldrás

    D                               A                       F#7
e --0/2--2--0-----------0--2--2-----0---0-------------------0--0--
B -------------3----3--3---------3---------3--2----2--2--3--------
G ----------------------------------------------------------------
D ----------------------------------------------------------------
A ----------------------------------------------------------------
E ----------------------------------------------------------------
    Bm               G          E           A
e --------------------------------------------------    ---------
B --2--3----3--2--0----0--0--0--0--2--3--2--3h5--5--    --3h5p3--
G --------------------------------------------------    ---------  muchas
D --------------------------------------------------    ---------  veces
A --------------------------------------------------    ---------
E --------------------------------------------------    ---------

D
Quiero llorar
                  A
Y me destroza que pienses así
          F#7      Bm
Y mas que ahora me quede sin ti
G        E         A
Me duele lo que tú vas a sufrir

D
Pero recuerda
                    A
Nadie es perfecto y tu lo veras
           F#7     Bm
Más de mil cosas mejores tendrás
G         E       A
Pero un cariño sincero jamás

D
Vete olvidando
                     A
Esto que hoy dejas y que cambiaras
           F#7      Bm
Por la aventura que tu ya veras
G       E        A
Será tu cárcel y nunca saldrás

D
Pero recuerda
                    A
Nadie es perfecto y tu lo veras
           F#7     Bm
Más de mil cosas mejores tendrás
G         E       A
Pero un cariño sincero jamás

D
Vete olvidando
                     A
Esto que hoy dejas y que cambiaras
           F#7      Bm
Por la aventura que tu ya veras
G       E     A
Será tu cárcel y nunca saldrás...

FINAL
     D                                          A
e --/17---17--15--14----14--14--15--17--17--14--15----15--14------
B ------------------------------------------------------------17--
G ----------------------------------------------------------------
D ----------------------------------------------------------------
A ----------------------------------------------------------------
E ----------------------------------------------------------------
                F#7         Bm
e ----------14--15--15------14----14----------
B --17--17--------------17------------17--15--
G --------------------------------------------
D --------------------------------------------
A --------------------------------------------
E --------------------------------------------
    G
e ----------------------14------14--15--14--15--17--19--17--15--17--
B --15--15--15--15--17------17--------------------------------------
G ------------------------------------------------------------------
D ------------------------------------------------------------------
A ------------------------------------------------------------------
E ------------------------------------------------------------------
Este fichero es trabajo propio de su transcriptor y representa su interpretación personal de la canción. El material contenido en esta página es
para exclusivo uso privado, por lo que se prohibe su reproducción o retransmisión, así como su uso para fines comerciales.
© LaCuerda.net · Aviso Legal · Privacidad