Tablatura para Bajo de Enanitos Verdes: Lamento Boliviano
Conexión · Inscripción
Letras y Acordes
Pantalla Completa
Imprimir
Versión Texto
Añadir Favorito
Otras Versiones

Mostrar Diagramas
Desfile Automático
Formato del Texto

Enanitos Verdes
Lamento Boliviano(BAJ)
calidad:
enan0449
AUTOR: Natalio Faingold, Raul Gómez
ALBUM: Big Bang (1994)
Enviado por Alexis
Bueno pues esta es mi primer tab en La Cuerda ojalá
 y les guste trate de hacerla lo más parecida a la rola.
Bueno pues toda la cancion la saque totalmente
de oido asi que cualquier falla pues ya sabran por que fue.
Y pues aquí les dejo la TAB


Me quieren agitar....
G-------------------------------------------------------------
D-------------------------------------------------------------
A-----------7-------------7/0------2---2-------2---2-----
E----0---0-------0---0--------------------2-------------2--

G-----------------------------------------------------------
D-------------2-----------2-------------------------0-1--
A------0---0-------0---0-------------------2---2------
E--------------------------------0---0-0-----------------

 Es mi situación....
G------------------------------------------------------------
D-----------2------------2-1------------4------------4---
A---------------------------------2---2--------2---2---1-
E----0---0-------0---0-------------------------------------

G------------------------------------------------------------
D------------------------------2----------------------------
A--------0---0-------0---0-------------------------------
E----------------0------------------0---0-0---7---7/0-


  Woooo....
G--------------------------------------------------------
D--------------------------------------------------------
A-----------------------------2---2-2----2---2-2--
E----0---0-0----0---0-0----------------------------

G-----------------------------------------------------------------
D------------------------------------------------------------------
A------0---0-0----0---0-0---------------2-2-2-2-2-2-2-
E---------------------------------0---0-0-----------------------

  Y yo  estoy aquí....
G--------------------------------------------------------------------
D--------------------------------------------------------------------
A---------------------------------------9----------9-----------7--
E----0---0-0----0---0-0----7---7-----7---7---6-5---5----

G---------------------------------------------------
D---------------------------------------------------
A--------------7-----------------------------5-6--
E------5---5----4----0---0-0-----7---7--------

  Y yo te amaré....
G---------------------------------------------------------
D--------------------------------------------------------
A---------------------------------------9----------9---
E----0---0-0----0---0-0----7---7-----7---7---6-

G--------------------------------------------------------------------
D--------------------------------------------------------------------
A------------7-5h7---------7--------------7--------------------
E----5---5------------5---5-----4--0---0-------7777777--

  Solo de guitarra 1ra parte
G---------------------------------------------------------
D---------------------------------------------------------
A---7---7--------------7--6---------9----------9----
E-----------0----0---0--------7---7-----7---7---6-

G------------------------------------------------------------
D-------------------+---------------------------------------
A----0---0-7----0---0-7-----------7-------------6-9--
E-------------------------------0----0------7----7-------

  Solo de guitarra 2da parte
G------------------------------------------------------------
D------------------------------------------------------9-8-
A---7---7--------------7--6---------9---------9--------
E-----------0----0---0--------7---7-------7------------

G----------------------------------------------------------------
D-----7---7-----------------7--5-----------------------------
A-------------7---7--0---0------------7---7-7-------------
E-----------------------------------------------------7---7-7-

   Woooo....
G--------------------------------------------------------
D--------------------------------------------------------
A-----------------------------2---2-2----2---2-2--
E----0---0-0----0---0-0----------------------------

G-----------------------------------------------------------------
D------------------------------------------------------------------
A------0---0-0----0---0-0---------------2-2-2-2-2-2-2-
E---------------------------------0---0-0-----------------------

     Y yo  estoy aquí…….
G---------------------------------------------------------------
D--------------------------------------------4-----------4----
A-----------7-------------7/0----2---2------2---2----1-
E----0---0-------0---0--------------------------------------

G---------------------------------------------------------------------
D---------------2-1h2---------2-1h2----------------------0-1-
A-------0---0-----------0---0-------------------------2---2------
E--------------------------------------------0---0-0-----------------

    Y yo  te amaré….
G------------------------------------------------------------------------
D----------2-------------2--1----------4---+------------------4----
A--------------------------------2---2---- 0h2h4----2---2----1-
E---0---0-------0---0-------------------------------------------------

G-------------------------------------------------------------------
D-------------------------------2----------------------------------
A-----0---0-----------0---0------2p1-------------------------
E-------------0--2h4--------------------0---0-0----7---7/0-

  Y yo  estoy aquí…….
G--------------------------------------------------------------------
D--------------------------------------------------------------------
A---7---7--------------7-6---------9-8h9---------9-8h9--
E-----------0----0---0------7---7------------7---7------------

G--------------------------------------------------------------------------
D--------------------------------------------------------------------------
A-------0---0-7-6h7---0---0-7-6h7---------7------------6--9-
E----------------------------------------------0---0------7----7-------

  Y yo  te amaré….
G-------------------------------------------------------------
D-------------------------------------------------------------
A---7---7----------------7-6---------9-----------99-88--
E------------0-----0---0-------7---7------7---7-----------

G---------------------------------------------------------------
D---------------------------------------------------------------
A------0---0-7-6h7---0---0-7-7p6----------7--------
E----------------------------------------------0---0-------7-

Outro

G--------------------------------------------------------------
D-----------5----------------------------5-------------------
A--------5---7~--7-5--------------5---7~--7--5------
E--5h7----------------7~----5h7-----------------7~---

G----------------5------------------7--------------------------------------
D--------------5--7~------------7--9~------------5--------------------
A-------5h7---------------7h9-----------------5---7~----7--5--2~
E--------------------------------------------5h7---------------------------

Disfrutenla
Este fichero es trabajo propio de su transcriptor y representa su interpretación personal de la canción. El material contenido en esta página es
para exclusivo uso privado, por lo que se prohibe su reproducción o retransmisión, así como su uso para fines comerciales.
© LaCuerda.net · Aviso Legal · Privacidad