Tablatura para Bajo de Enanitos Verdes: Lamento Boliviano
Conexión · Inscripción
Letras y Acordes
Pantalla Completa
Imprimir
Versión Texto
Añadir Favorito
Otras Versiones

Mostrar Diagramas
Desfile Automático
Formato del Texto


Enanitos Verdes
Lamento Boliviano(BAJ)
calidad:
enan0449
AUTOR: Natalio Faingold, Raul Gómez
ALBUM: Big Bang (1994)
Enviado por Daniel
Esta muy fácil solo acomodenla a la canción suena muy bien
fig.1 Estrofa. Me quieren agitar!!!

G|-------------|-----------|-----------|----------|-------------
D|-------------|-----------|---7--9----|---9--8--7|---5--7-5----
A|-7--7----5--7|-7----7-5--|-9---------|-9--------|-7-----------
E|------7------|---7------7|----------7|----------|----------5--

G|-----------|--------|-----------------|
D|---5--7-5--|---9----|-----------------|Se repite.
A|-7--------7|-7----7/|---7-5---5-------|
E|-----------|--------|-7-----7---7-5-7-|

fig.2 pre-coro. Wooooo!!! Wooo ooh!!!!

G|----------|-----------------------------|---------------------|
D|----------|-7/9--99999--9/7--777777--7/0|---------------------|
A|-7--777777|-----------------------------|--7------------------|
E|----------|-----------------------------|----------77777777---|

fig.3 Coros. Y yo estoy aquí!!!!!!

G|---------------|------------|----------|----------|------------
D|------5-5------|---5-5------|---7--9---|---9--8--7|---5--7-5---
A|-7--7-----7-5-7|-7-----7-5--|-9--------|-9--------|-7----------
E|---------------|-----------7|---------7|----------|----------5-


G|-----------|--------|-----------------|
D|---5--7-5--|---9----|-----------------| X2
A|-7--------7|-7----7/|---7-5---5-------|
E|-----------|--------|-7-----7---7-5-7-|

 Solo: Se repite fig.1 X2
 Pre-coro
 coros: X4

 Final

G|---------------------|---------------------|-------5--|-------7----
D|-5h6p5---------------|-5h6p5---------------|-----5---7|-----7---9--
A|--------7-5-7--7-5---|--------7-5-7--7-5---|-5h7------|-7h9--------
E|--------------------7|--------------------7|----------|------------

G|-----------------------|
D|-------5---------------|
A|-----5---7---7-5-------|
E|-5h7---------------7---|

 Espero y es guste.
-
Este fichero es trabajo propio de su transcriptor y representa su interpretación personal de la canción. El material contenido en esta página es
para exclusivo uso privado, por lo que se prohibe su reproducción o retransmisión, así como su uso para fines comerciales.

© LaCuerda.net · Aviso Legal · Privacidad