Tablatura para Guitarra de Enanitos Verdes: Lamento Boliviano
Conexión · Inscripción
Letras y Acordes
Pantalla Completa
Imprimir
Versión Texto
Añadir Favorito
Otras Versiones

Mostrar Diagramas
Desfile Automático
Manipular Acordes
Formato del Texto


Enanitos Verdes
Lamento Boliviano(TAB)
calidad:
enan0448
AUTOR: Natalio Faingold, Raul Gómez
ALBUM: Big Bang (1994)
Enviado por ulises
 b:significa estirada

               Em
me quieren agitar me incitan a gritar
               SIm
soy como una roca palabras no me tocan
               Am
adentro hay un volcan que pronto va a estallar
      Em         SI7
yo quiero estar tranquilo.


               Em
es mi situacion una desolacion
               SIm
soy como un lamento,lamento boliviano
               Am
que un dia empezo y no va a terminar
      Em         SI7
y a nadie hace daño.


    Em         SIm    Am     Em  SI7
uoooooooh ioiooooooo hehehehe ieeee


      Em          SIm
y yo estoy aqui borracho y loco
      Am            Em      SI7
y mi corazon idiota siempre brillara
      Em             SIm
y yo te amare te amare por siempre
              Am
nena no te peines en la cama
          Em            SI7
que los viajantes se van a atrazar

solo 1:
----------------------------------------12---------------------------
---7-8 7--------7-8 7-----------------12---b15-12--------------------
-9-------9-----7-------b9-9-------b14-------------b14-12-14-b14-12-14
9---------9--9--------------7-9-7------------------------------------
---------------------------------------------------------------------
---------------------------------------------------------------------

-----------------------12-b14a15-15-14-12-15-14-12-------------------
---------------------12----------------------------b15-15 12---------
12-11-12-11--------------------------------------------------14-12-14
---------------------------------------------------------------------
------------14-12-14-------------------------------------------------
---------------------------------------------------------------------

-------------------------------------14-14/15-15-14-12---14/15-------
---------------------------------------------------------------14----
------12-14/12-14-12/11/12/11/12--14---------------------------------
12-14----------------------------------------------------------------
---------------------------------------------------------------------
---------------------------------------------------------------------

13/14---9/12------------------------
-----12------10-b10-10-8------------
-------------------------9----------
------------------------------------
------------------------------------
------------------------------------

  Em      SIm        Am     SI7
uooooo ioiooooooo hehehehe yeaaa

            Em
y yo estoy aqui borracho y loco
            SIm
y mi corazon idiota siempre brillara
            Am
y yo te amare te amare por siempre
            Em
nena no te peines en la cama
            SI7
que los viajantes se van a atrazar.


            Em
y yo estoy aqui borracho y loco
            SIm
y mi corazon idiota siempre brillara
            Am
y yo te amare te amare por siempre
            Em
nena no te peines en la cama
            SI7
que los viajantes se van a atrazar

solo 2:

---------------------------------------------------------------------
---------------------------------------------------------------------
12-11--------------------12-11-------------------12-11---------------
------14-12-14---14-12----------14-12-14-14-12----------------10-----
-----------------------14----------------------14-----------10---12--
-------------------------------------------------------10/12---------

---------------------------------------------------------------------
---------------------------------------------------------------------
--------------12-11--------------------------------------------------
--------12-9--------14-12-14-12/14-12--------------------------------
-----10-------------------------------14-----------------------------
10/12----------------------------------------------------------------
Este fichero es trabajo propio de su transcriptor y representa su interpretación personal de la canción. El material contenido en esta página es
para exclusivo uso privado, por lo que se prohibe su reproducción o retransmisión, así como su uso para fines comerciales.

© LaCuerda.net · Aviso Legal · Privacidad