Tablatura para Guitarra de Enanitos Verdes: Lamento Boliviano
Conexión · Inscripción
Letras y Acordes
Pantalla Completa
Imprimir
Versión Texto
Añadir Favorito
Otras Versiones

Mostrar Diagramas
Desfile Automático
Manipular Acordes
Formato del Texto


Enanitos Verdes
Lamento Boliviano(TAB)
calidad:
enan0446
AUTOR: Natalio Faingold, Raul Gómez
ALBUM: Big Bang (1994)
Enviado por Edwin
Transcrita por Edwin Ortiz (edwalt@es.com.sv)
(100% El Salvador)

Estos son los todos los solos de la mitad y de la final de la 
cancion. Recomiendo escuchar bien la cancion un par de veces antes y
aprender de dos partes en dos, dedicando a cada parte de 10 a 15 min
hasta adquirir la rapidez, luego aprender otros dos, etc.

Simbologia ejemplificada:
-12h14-    hammer on
-14p12-    pull off
-12s13-    slide
-(12)--    nota fantasma

IMPORTANTE, para no confundirnos:
-12~~--    mantener sonando la nota, NO es un vibrato
-12v~~-    vibrato
-12br--    bend and release (estirar y soltar)
-12b~r-    lo mismo pero mas lento
-12b~~-    solo estirar, claro

Ahora el solo principal. Parecer ser que el segundo acorde del circulo 
es Bm y no Bm7.

    Em                             Bm
e|--------------------------------|---------------------------------|
B|--------7-8~~---7---------------|----7h8v~------------------------|
G|------9-----------9-------------|---7--------9p7-10s11~-----------|
D|---7h9--------------9~~---------|--9---------------------7~~h9p7--|
A|--------------------------------|---------------------------------|
E|--------------------------------|---------------------------------|

   Am7                                    Em 
|---------12------------------------|--------------------------------|
|------------15b~r--15--------------|--------------------------------|
|-14s15s14------------14p12 14brbr~-|-16p14p12h14v~~~--12s11h12~~p11-|
|-----------------------------------|--------------------------------|
|-----------------------------------|--------------------------------|
|-*rapido*--------------------------|------------------------*lento*-|

  B7                        Em
|----------------------||--------------------------------------------|
|-------------17-19b~~~-19p17p15-19p17p15-19b~~-15br-----------------|
|-----------(19)-------||---------------------------14h15p14p12-14br~|
|----------------------||--------------------------------------------|
|-14p12h14~------------||--------------------------------------------|
|----------------------||--------------------------*-----rapido----*-|

  Bm
|--------------------------------------------------------|
|--------------------------------------------------------|
|----12-14-14brh12-14b~r--12s11h12p11h12~----------------|
|--14---------------------------------------12-----------|
|-----------------------------------------14--14p12~~s\--|
|----------------------------------*-casi-inaudible-*----|

Am7                                         Em
|--------14--14h15~--(12)s14---16b~~--|--14s15----13s14-----11s12----|
|-------------------------------------|-------14-------12--------10--|
|--12h14~-----------------------------|------------------------------|
|-------------------------------------|------------------------------|
|-------------------------------------|------------------------------|
|-------------------------------------|------------------------------|

   B7
|--------------------------------||
|--12p10v~~~~~-------------------||
|----------------12--------------||
|------------------14~~~---------||
|--------------------------------||
|--------------------------------||

FINAL
Lo que esta sobre los asteriscos va con distorsion media
    Em
e|-----------------------------------------------------|
B|--7h8p7---------------------7h8p7--------------------|
G|--------9-7-9~~-------------------9-7-9~~------------|
D|-----------------------------------------------------|
A|------------------7br7b~--------------------7br7b~---|
E|------------------------7-------------------------7--|
                    ******                   ******
                                                        E7
e|-----------------------------------------------------|--7--|
B|--------------------------------8-7------------------|--7--|
G|------5-------------7---------------9-7-9~~----------|--8--|
D|-----5--6s7~~------7--8s9~~--------------------------|--7--|
A|--5h7-----------7h9--------------------------7br7b~--|--9--|
E|-----------------------------------------------------|--7--|
    **************************                 *****

______________________________________________________
Estos solos los he revisado mas de 6 horas, pero
si tienen preguntas: Edwin 'Slave' Ortiz.  edwalt@es.com.sv
Este fichero es trabajo propio de su transcriptor y representa su interpretación personal de la canción. El material contenido en esta página es
para exclusivo uso privado, por lo que se prohibe su reproducción o retransmisión, así como su uso para fines comerciales.
© LaCuerda.net · Aviso Legal · Privacidad