Tablatura para Bajo de Enanitos Verdes: Lamento Boliviano
Conexión · Inscripción
Letras y Acordes
Pantalla Completa
Imprimir
Versión Texto
Añadir Favorito
Otras Versiones

Mostrar Diagramas
Desfile Automático
Formato del Texto


Enanitos Verdes
Lamento Boliviano(BAJ)
calidad:
enan0445
AUTOR: Natalio Faingold, Raul Gómez
ALBUM: Big Bang (1994)
Enviado por Jonathan
Esta version fue hecha por mi espero les guste va al tiempo de
la cancion(:



Me quieren agitar....
G|------------------------------------------------------------
D|------------------9-----------------------------------------
A|---7-7----7-7-7-9---7-9-9--------7-5-7-----7-5-7-77-5-------
E|------7-7----7------------7-6-5-5------5-5-----------7-77-9-


 Es mi situación....
G|------------------------------------------------------------
D|------------------9-----------------------------------------
A|---7-7----7-7-7-9---7-9-9--------7-5-7-----7-5-7-77-5-------
E|------7-7----7------------7-6-5-5------5-5-----------7-77-9-



 Woooo....
G|--------------------------------------------------------
D|--------------------------7h9-7------------------------
A|---7--7777--5------------7-------10-7-7777--99999-------
E|--------------7--77777-5--------------------------------


  Y yo  estoy aquí....
G|------------------------------------------------------------
D|------------------9-----------------------------------------
A|---7-7----7-7-7-9---7-9-9--------7-5-7-----7-5-7-77-5-------
E|------7-7----7------------7-6-5-5------5-5-----------7-77-9-

  Y yo te amaré....
G|------------------------------------------------------------
D|------------------9-----------------------------------------
A|---7-7----7-7-7-9---7-9-9--------7-5-7-----7-5-7-77-5-------
E|------7-7----7------------7-6-5-5------5-5-----------7-77-9-


  Solo de guitarra.
G|------------------------------------------------------------
D|------------------9------9-8-7-7---7-77-5-------------------
A|---7-7----7-7-7-9---7-9-9-------7-7-------7-77-5------------
E|------7-7----7------------------------------------7-77-9----


G|------------------------------------------------------------
D|------------------9------9-8-7-7---7-77-5-------------------
A|---7-7----7-7-7-9---7-9-9-------7-7-------7-77-5------------
E|------7-7----7------------------------------------7-77-9----

   Woooo....
G|--------------------------------------------------------
D|--------------------------7h9-7------------------------
A|---7--7777--5------------7-------10-7-7777--99999-------
E|--------------7--77777-5--------------------------------


      Y yo  estoy aquí....
G|------------------------------------------------------------
D|------------------9-----------------------------------------
A|---7-7----7-7-7-9---7-9-9--------7-5-7-----7-5-7-77-5-------
E|------7-7----7------------7-6-5-5------5-5-----------7-77-9-

  Y yo te amaré....
G|------------------------------------------------------------
D|------------------9-----------------------------------------
A|---7-7----7-7-7-9---7-9-9--------7-5-7-----7-5-7-77-5-------
E|------7-7----7------------7-6-5-5------5-5-----------7-77-9-

    Y yo  estoy aquí....
G|------------------------------------------------------------
D|------------------9-----------------------------------------
A|---7-7----7-7-7-9---7-9-9--------7-5-7-----7-5-7-77-5-------
E|------7-7----7------------7-6-5-5------5-5-----------7-77-9-

  Y yo te amaré....
G|------------------------------------------------------------
D|------------------9-----------------------------------------
A|---7-7----7-7-7-9---7-9-9--------7-5-7-----7-5-7-77-5-------
E|------7-7----7------------7-6-5-5------5-5-----------7-77-9-

Final

G|-----------12------------------
D|--------12-----14-12h14-12-----   (x2)
A|--12h14--------------------14--
E|-------------------------------

G----------------5----------------7---------------------------
D--------------5--7~------------7---9~----------5-------------
A-------5h7---------------7h9-----------------5---7--5h7-5----
E----------------------------------------5h7----------------7-



Jonathan Ortiz.
Este fichero es trabajo propio de su transcriptor y representa su interpretación personal de la canción. El material contenido en esta página es
para exclusivo uso privado, por lo que se prohibe su reproducción o retransmisión, así como su uso para fines comerciales.

© LaCuerda.net · Aviso Legal · Privacidad