Tablatura para Guitarra de Enanitos Verdes: Lamento Boliviano
Conexión · Inscripción
Letras y Acordes
Pantalla Completa
Imprimir
Versión Texto
Añadir Favorito
Otras Versiones

Mostrar Diagramas
Desfile Automático
Manipular Acordes
Formato del Texto


Enanitos Verdes
Lamento Boliviano(TAB)
calidad:
enan0443
AUTOR: Natalio Faingold, Raul Gómez
ALBUM: Big Bang (1994)
Enviado por Joel
Ya que las versiones mejoer calificadas de este solo no me agradaron me
dispuse a sacarla de oido creo yo suena muy similar mi arreglo.

Dedicada a la CSS y todos sus fans de Ags y Tlachichila ñ_ñ



B = bend un tono
Bd = bend down un tono
b = hend medio tono
/ = slide
h= hammer
p = pull
B^= bend up-down un tono
b^= bend up-down un semitono



E|------------------------------|------------------------------------|
B|-------------7---8----7-------|-------7-----8----7-----------------|
G|---------9----------------9---|----7-----------------9---7---------|
D|---7/9----------------------9-|-9----------------------------------|
A|------------------------------|------------------------------------|
E|------------------------------|------------------------------------|


E|------------------------------|--------12------------------------|
B|------------------------------|-----12----15B--12----------------|
G|-9b---------------------------|-14B----------------14B-12h14-----|
D|-------7-h9p-7----------------|----------------------------------|
A|------------------------------|----------------------------------|
E|------------------------------|----------------------------------|

G
E|-----------------------------| B|-----------------------------| G|-14B^--12-14---12--11--12-11-| D|-----------------------------| A|-----------------------------| E|-----------------------------| E|--------------------------|-----12-14-14b-----12--14b-12-14b-12--| B|--------------------------|---12----------15---------------------| G|--------------------------|-12-----------------------------------| D|--------------------------|--------------------------------------| A|-14-12-14-----------------|--------------------------------------| E|--------------------------|--------------------------------------| E|------------------------| B|-15B^-12----------------| G|----------14B^----------| D|------------------------| A|------------------------| E|------------------------| E|------------------------------------|-15/17---14--14/15--15----------| B|------------------------------------|--------------------------------| G|-----12--14--14B--12-11-12-11-------|-12/14---11--11/12--12----------| D|-14---------------------------12----|--------------------------------| A|------------------------------------|--------------------------------| E|------------------------------------|--------------------------------| E|-12/-14---10-/-12--12------| B|---------------------------| G|-9-/-11----7-/-9---9-------| D|---------------------------| A|---------------------------| E|---------------------------|
G B7
E|-15------14-----12---------|---------------------------| B|----14------12------10-----|---------------------------| G|---------------------------|-----14b^---12-------------| D|---------------------------|------------------14-------| A|---------------------------|---------------------------| E|---------------------------|---------------------------|
Este fichero es trabajo propio de su transcriptor y representa su interpretación personal de la canción. El material contenido en esta página es
para exclusivo uso privado, por lo que se prohibe su reproducción o retransmisión, así como su uso para fines comerciales.

© LaCuerda.net · Aviso Legal · Privacidad