Tablatura para Bajo de Enanitos Verdes: Igual que Ayer
Conexión · Inscripción
Letras y Acordes
Pantalla Completa
Imprimir
Versión Texto
Añadir Favorito
Otras Versiones

Mostrar Diagramas
Desfile Automático
Formato del Texto


Enanitos Verdes
Igual que Ayer(BAJ)
calidad:
enan0396
AUTOR: Marciano Cantero
ALBUM: Musicos Poetas y Locos (1992)
Enviado por Luis
INTRO:

G---------------------------------------------------------------
D---------------------------------------------------------------
A---------------------------------------------------------------
E-3-33-33-3-----------------------------------------------------

G---------------------------------------------------------------
D---------------------------------------------------------------
A--------5-55-5--------7-77-7--------5-55-----------------------
E-5-55-5--------7-76-6--------5-55-5-----5-3-33-33-33-4---------

CANTO:
G---------------------------------------------------------------
D---------------------------------------------------------------
A--------5-55-5--------7-77-7--------5-55----------------------- X2
E-5-55-5--------7-76-6--------5-55-5-----5-3-33-33-33-4---------

G---------------------------------------------------------------
D---------------------------------------------------------------
A-----------------------------6-65-53-31-1-------5-55-5---------
E-8-88-8-7-77-6-5-55-3-5-55-5-------------5-55-5----------------

G-----------------------------------------------------------------
D-----------------------------------------------------------------
A--------5-55-5-10-1010-9-99-8-88-7-77--------3-33-3--------5-55-5
E-5-55-5-------------------------------5-55-5--------5-55-5-------

(REPITE CANTO)

(SOLO)

G------------------------------------------------------------------
D------------------------------------------------------------------
A--------5-55-5-10-1010-9-99-8-88-7-77--------5-55----------------- X2
E-5-55-5-------------------------------5-55-5------5-3-33-33-33-4--

CORO:
G------------------------------------------------------------------
D------------------------------------------------------------------
A--------------5-55-5-3-33-3------3-5-55-5--------3-5-55-5---------
E-7-77-77-77-7---------------5-55----------5-55-5------------------

G------------------------------------------------------------------
D------------------------------------------------------------------
A--------5-55-5--------7-77-7--------5-55--------------------------
E-5-55-5--------7-76-6--------5-55-5-----5-3-33-33-33-4------------

G------------------------------------------------------------------
D------------------------------------------------------------------
A-----------------------------6-65-53-31-1-------5-55-5------------
E-8-88-8-7-77-6-5-55-3-5-55-5-------------5-55-5-------------------

G------------------------------------------------------------------
D------------------------------------------------------------------
A--------5-55-5-10-1010-9-99-8-88-7-77--------3-33-3--------5-55-5- X4
E-5-55-5-------------------------------5-55-5--------5-55-5--------

FINAL:

G---------------------------------------------------------------
D---------------------------------------------------------------
A--------5-55-5--------7-77-7--------5-55-----------------------
E-5-55-5--------7-76-6--------5-55-5-----5-3-33-33-33-4---------

G---------------------------------------------------------------
D---------------------------------------------------------------
A--------5-55-5-10-1010-9-99-8-88-7-77--------5-55--------------
E-5-55-5-------------------------------5-55-5------5-3-33-33-3--
Este fichero es trabajo propio de su transcriptor y representa su interpretación personal de la canción. El material contenido en esta página es
para exclusivo uso privado, por lo que se prohibe su reproducción o retransmisión, así como su uso para fines comerciales.
© LaCuerda.net · Aviso Legal · Privacidad