Tablatura para Bajo de Enanitos Verdes: Guitarras Blancas
Conexión · Inscripción
Letras y Acordes
Pantalla Completa
Imprimir
Versión Texto
Añadir Favorito
Otras Versiones

Mostrar Diagramas
Desfile Automático
Formato del Texto

Enanitos Verdes
Guitarras Blancas(BAJ)
calidad:
enan0354
AUTOR: Marciano Cantero, Felipe Staiti
ALBUM: Traccion Acustica
Enviado por Luis
Es una gran rola con un gran sonido,
sólo agarren el ritmo y ya está...

Intro
G---8h10-8/2----
D---------------
A---------------
E---------------

Verso 1
G------------------------------
D---------------------1--3----- (x7)
A---3---3---1--3----3----------
E---------3--------------------

(0:24)
G------------------------------
D------------------------------
A---3---3---1--3----3-3/6/8----
E---------3--------------------

Por favor, dejennos bailar...
G-----------------------------------------------
D-----------------------------------------------
A--1-11--1-11-2--3---3----1--3-----3-3h1-1h0----
E-----------------------3-----------------------

G-----------------------------------------------
D-----------------------------------------------
A--1-11--1-11-2--3---3----1--3-----3-3/6/8------
E-----------------------3-----------------------

Verso 2
G------------------------------
D------------------------------ (x3)
A---3---3---1--3----3-3/6/8----
E---------3--------------------

(0:50)
G----------------------------
D----------------------------
A---3---3---1--3----3-2--0---
E---------3------------------

Por favor, dejennos bailar...
G-----------------------------------------------
D-----------------------------------------------
A--1-11--1-11-2--3---3----1--3-----3-3h1-1h0----
E-----------------------3-----------------------

G--------------------------------------
D--------------------------------------
A--1-11--1-11-2--3---3----1--3-2-1-0---
E-----------------------3--------------

Y no hablen ahora de Nueva york...
G----------------------------------------------
D----------------------------------------------
A----------------------------------------------
E--4-44--6-66-6--4-44--6-66-6--4-44--6-66--6---

Verso 3
G----------------------------
D---------------------1--3--- (x5)
A---3---3---1--3----3--------
E---------3------------------

(1:32)
G----------------------------
D----------------------------
A---3---3---1--3----3-2--0---
E---------3------------------

Por favor, dejennos bailar...
G-----------------------------------------------
D-----------------------------------------------
A--1-11--1-11-2--3---3----1--3-----3-3h1-1h0----
E-----------------------3-----------------------

G--------------------------------------
D--------------------------------------
A--1-11--1-11-2--3---3----1--3-2-1-0---
E-----------------------3--------------

Y no hablen ahora de Nueva york...
G----------------------------------------------
D----------------------------------------------
A----------------------------------------------
E--4-44--6-66-6--4-44--6-66-6--4-44--6-66--6---

Luego se toca esto:
G------------------
D------------------
A---3---3---1--3---
E---------3--------

G-------------
D------------- (x5)
A--3---1--3---
E----3--------

G------------------
D------------------
A--3---1--3-2-1-0--
E----3-------------

G------------------
D------------------
A------------------
E--4--3--1--0------

Solo de Bajo
G----------------
D--------1------- (x7)
A--3-1------1-3--
E------3---------

G------------------
D------------------
A--3-1----1-1-2-3--
E------3-----------

Puente (2:30)
G-----------------------------
D---------------------1--3---- (x2)
A---3---3---1--3----3---------
E---------3-------------------

(2:37)
G------------------------
D------------------------
A---3---3---1--3-2-1-0---
E---------3--------------

Y no hablen ahora de Nueva york...
G------------------------------------------------
D------------------------------------------------
A------------------------------------------------
E--4-44--6-66-6--4-44--6-66-6--4-44--6-6/12/6----

Verso/Puente Final (2:50)
G-----------------------------
D---------------------1--3---- (x3)
A---3---3---1--3----3---------
E---------3-------------------

(3:00)
G----------------------------
D----------------------------
A---3---3---1--3-2-1-0-------
E---------3------------------

Outro
G--------------5----6----8----10/2--
D----6----8-------------------------
A-----------------------------------
E--4----6----4----6----4----6-------

G-----
D-----
A-3---
E-----

Esa es toda la cancion, alguna correccion o comentario
ahi esta mi correo
Envía el tono de "Guitarras Blancas" a tu celular/móvil
Este fichero es trabajo propio de su transcriptor y representa su interpretación personal de la canción. El material contenido en esta página es
para exclusivo uso privado, por lo que se prohibe su reproducción o retransmisión, así como su uso para fines comerciales.
© LaCuerda.net · Aviso Legal · Privacidad