Tablatura para Guitarra de Enanitos Verdes: Cordillera
Conexión · Inscripción
Letras y Acordes
Pantalla Completa
Imprimir
Versión Texto
Añadir Favorito
Otras Versiones

Mostrar Diagramas
Desfile Automático
Manipular Acordes
Formato del Texto

Enanitos Verdes
Cordillera(TAB)
calidad:
enan0152
AUTOR: Natalio Faingold, Felipe Staiti
ALBUM: Nectar
Enviado por Natanael
Esta es la versión original de la canción suena muy bien
y muy parecido ya que asi es como se toca la original y no queda
bien si lo tratas de hacer con las tras trancripciones.

Intro:
e |-------8-7-5---|-------7-5-----|-------5---------|
B |-5-5-5-------5-|-5-5-5-----8---|---------6-6-8-8-|
G |---------------|-------------7-|-7-7-7-----------|
D |---------------|---------------|-----------------|
A |---------------|---------------|-----------------|
E |---------------|---------------|-----------------|

e |-----------------|
B |-5-------5-------|
G |---5---5---7-----|
D |-----7-------8-6-| X 2 veces
A |-----------------|
E |-----------------|

Am                 G
Quien te ha visto quien te ve
Am                 G
En la Cordillera de los Andes
Am             G        Am    G
Nunca me dejaste sorprender
Am             G
Viento blanco que mas da
Am                 G
Que por mi pueden pasar las horas
Am               G             Am    G
Quiero estar contigo un tiempo mas

e |-------8-7-5---|-------7-5-----|-------5---------|
B |-5-5-5-------5-|-5-5-5-----8---|---------6-6-8-8-|
G |---------------|-------------7-|-7-7-7-----------|
D |---------------|---------------|-----------------|
A |---------------|---------------|-----------------|
E |---------------|---------------|-----------------|

e |-----------------|
B |-5-------5-------|
G |---5---5---7-----|
D |-----7-------8-6-|
A |-----------------|
E |-----------------|

Am            G          Am   G
Y así podrán pasar los años
Am          G           Am   G
y yo tomar mil direcciones
Am               G
se que he dejado un mundo atrás
Am                   G
Siguiendo siempre un ideal
Am                G       F
Como un valiente cazador
G
De las estrellas

Am            G
Se vive, la libertad
Am             G
Se siente, la libertad
Am              G         Am    G
Te envuelve, la magia del lugar

Am            G
Se vive, la libertad
Am             G
Se siente, la libertad
Am              G          Am   G
Te envuelve, la magia del lugar

Solo

Am                 G
Quien te ha visto quien te ve
Am                 G
En la Cordillera de los Andes
Am           G           Am    G
Nunca me dejaste sorprender
Am             G
Viento blanco que mas da
Am                 G
Que por mi pueden pasar las horas
Am            G          Am     G
Quiero estar aquí un poco mas

Am        G        Am    G
Hay una nube pasajera
Am          G       Am    G
Tocando los picos nevados
Am               G
se que he dejado un mundo atrás
Am                   G
siguiendo siempre un ideal
Am          G            F
como un valiente cazador
G
de las estrellas

Am            G
se vive, la libertad
Am             G
se siente, la libertad
Am              G         Am    G
te envuelve, la magia del lugar

Am            G
se vive, la libertad
Am             G
se siente, la libertad
Am              G          Am   G
te envuelve, la magia del lugar

Am       G
se vive...
Am       G
se siente...
Am               G          Am   G
te envuelve, la magia del lugar

Am       G
se vive...
Am       G
se siente...
Am               G          Am   G
te envuelve, la magia del lugar

Am            G
se vive, la libertad
Am             G
se siente, la libertad
Am              G           Am   G
te envuelve, la magia del lugar.

e |-------8-7-5---|-------7-5-----|-------5---------|
B |-5-5-5-------5-|-5-5-5-----8---|---------6-6-8-8-|
G |---------------|-------------7-|-7-7-7-----------|
D |---------------|---------------|-----------------|
A |---------------|---------------|-----------------|
E |---------------|---------------|-----------------|

e |-----------------|
B |-5-------5-------|
G |---5---5---7-----| X 2 veces
D |-----7-------8-6-|
A |-----------------|
E |-----------------|
Envía el tono de "Cordillera" a tu celular/móvil
Este fichero es trabajo propio de su transcriptor y representa su interpretación personal de la canción. El material contenido en esta página es
para exclusivo uso privado, por lo que se prohibe su reproducción o retransmisión, así como su uso para fines comerciales.
© LaCuerda.net · Aviso Legal · Privacidad