Tablatura para Guitarra de Enanitos Verdes: Amores Lejanos
Conexión · Inscripción
Letras y Acordes
Pantalla Completa
Imprimir
Versión Texto
Añadir Favorito
Otras Versiones

Mostrar Diagramas
Desfile Automático
Manipular Acordes
Formato del Texto


Enanitos Verdes
Amores Lejanos(TAB)
calidad:
enan0869
AUTOR: Felipe Staiti
ALBUM: Amores Lejanos (2002)
Enviado por Gere
-Esta versión es del CD En Vivo.


*Intro:


-Gtrra. Acústica:

1. ------------------------------------------------|
2. -----0-1-3-3/5-3-1-3-3/5------------------------|
3. ---2---------------------5----------------------|
4. -2-------------------------7-7--5---5-----------|
5. ----------------------------------7---5-7-3-5-0-|
6. ------------------------------------------------|

1. -------------3----------------------|
2. ---1-3-3-3/5---3/5/3-1--1-3/5/3-1/3-|
3. -2---------------------2------------|
4. ------------------------------------|
5. ------------------------------------|
6. ------------------------------------|

1. ---------0-1-0-----0-----------------|
2. ---0-1-3-------3-1---3-1-3-1-0-------|
3. -2-----------------------------2-0-2-|
4. -------------------------------------|
5. -------------------------------------|
6. -------------------------------------|

1. -----------5-7-8-7-5---------------------------------|
2. -------5-8-----------8-6-5-6-5-------5-8-6-5---5h6p5-|
3. ---5-7-------------------------7-5-7---------7-------|
4. -7---------------------------------------------------|
5. -----------------------------------------------------|
6. -----------------------------------------------------|

1. ------------------10-12-13-15-13-12-13p12-10-13-12-10----12-10-
2. ---------10-12-13-------------------------------------13-------
3. -9-10-12-------------------------------------------------------
4. ---------------------------------------------------------------
5. ---------------------------------------------------------------
6. ---------------------------------------------------------------

1. ------------------------------------------------------------|
2. -13-12-10-13-12-10----10--/13----10---6---5-----------------|
3. -------------------12---------12----9---7---5-4-------------|
4. ------------------------------------------------7-5-7-7-7-7-|
5. ------------------------------------------------------------|
6. ------------------------------------------------------------|
Este fichero es trabajo propio de su transcriptor y representa su interpretación personal de la canción. El material contenido en esta página es
para exclusivo uso privado, por lo que se prohibe su reproducción o retransmisión, así como su uso para fines comerciales.

© LaCuerda.net · Aviso Legal · Privacidad