Tablatura para Guitarra de Enanitos Verdes: Amores Lejanos
Conexión · Inscripción
Letras y Acordes
Pantalla Completa
Imprimir
Versión Texto
Añadir Favorito
Otras Versiones

Mostrar Diagramas
Desfile Automático
Manipular Acordes
Formato del Texto

Enanitos Verdes
Amores Lejanos(TAB)
calidad:
enan0864
AUTOR: Felipe Staiti
ALBUM: Amores Lejanos (2002)
Enviado por duaner
espero que les guste


  INTRO

  GUITARRA 1
  e|------------------1-------------------------0-----|
  B|-----0-1-3----------3----------0-1-3----------1---|
  G|---2-------2-0--------2------2-------2-0--------2-|
  D|-2-------------0-----------2-------------1--------|
  A|--------------------------------------------------|
  E|--------------------------------------------------|

  e|------------------1-------------------------0-----|
  B|-----0-1-3----------3----------0-1-3----------1---|
  G|---2-------2-0--------2------2-------2-0--------2-|
  D|-2-------------0-----------2-------------1--------|
  A|--------------------------------------------------|
  E|--------------------------------------------------|

  e|--5--3----3--------|
  B|--5----3--0--------|
  G|--5----------------|
  D|-------------------|
  A|-------------------|
  E|-------------------|


  Dm
  Esta tarde no pasa nada

  e|-------5-----5-5---|
  B|-------------6-6---|
  G|-------------7-7---|
  D|-------------------|
  A|-------------------|
  E|-------------------|

  Am
  las calles parecen desiertas

  e|--5--5-5------5--5---|
  B|-----6-6---------6---|
  G|-----7-7-------------|
  D|---------------------|
  A|---------------------|
  E|---------------------|

  Dm
  carmencita se fue de viaje

  e|-------5-----5-5---|
  B|-------------6-6---|
  G|-------------7-7---|
  D|-------------------|
  A|-------------------|
  E|-------------------|

  Am                      Gm
  y quiza nunca mas la vea

  e|---3--3---3--------|
  B|---3----3----------|
  G|---3---------------|
  D|-------------------|
  A|-------------------|
  E|-------------------|

  Dm
  yo mirando por la ventana

  e|-------5-----5-5---|
  B|-------------6-6---|
  G|-------------7-7---|
  D|-------------------|
  A|-------------------|
  E|-------------------|

  Am
  el asfalto brillando perlas

  e|--5--5-5------5--5---|
  B|-----6-6---------6---|
  G|-----7-7-------------|
  D|---------------------|
  A|---------------------|
  E|---------------------|

  Dm
  los lugares que frecuentaba

  e|-------5-----5-5---|
  B|-------------6-6---|
  G|-------------7-7---|
  D|-------------------|
  A|-------------------|
  E|-------------------|

  Am                           Gm
  no me atraen ni me interesan

  e|----5----7----8-----10----12--|
  B|------------------------------|
  G|--5----7----9----10----12-----|
  D|------------------------------|
  A|------------------------------|
  E|------------------------------|


  C                     G            Am
  Y aunque hoy no estas, voy planificando

  e|---------0----------------|
  B|---0h1-----1--------------|
  G|-------0-----2------------|
  D|-2------------------------|
  A|--------------------------|
  E|--------------------------|

  C              G          Am
  una y otra vez, amores lejanos

  e|---------0----------------|
  B|---0h1-----1--------------|
  G|-------0-----2------------|
  D|-2------------------------|
  A|--------------------------|
  E|--------------------------|

  C                     G               Am
  y aunque hoy no estas, te habro mis brazos

  e|---------0----------------|
  B|---0h1-----1--------------|
  G|-------0-----2------------|
  D|-2------------------------|
  A|--------------------------|
  E|--------------------------|

  C             G        Am
  yo me quedare, aquí esperando

  e|---------0--|
  B|---0h1------|
  G|-------0----|
  D|-2----------|
  A|------------|
  E|------------|


  e|------------------1-------------------------0-----|
  B|-----0-1-3----------3----------0-1-3----------1---|
  G|---2-------2-0--------2------2-------2-0--------2-|
  D|-2-------------0-----------2-------------1--------|
  A|--------------------------------------------------|
  E|--------------------------------------------------|

  e|------------------1-------------------------0-----|
  B|-----0-1-3----------3----------0-1-3----------1---|
  G|---2-------2-0--------2------2-------2-0--------2-|
  D|-2-------------0-----------2-------------1--------|
  A|--------------------------------------------------|
  E|--------------------------------------------------|

  e|--5--3----3--------|
  B|--5----3--0--------|
  G|--5----------------|
  D|-------------------|
  A|-------------------|
  E|-------------------|


  Dm
  Esta tarde no pasa nada

  e|-------5---------5----|
  B|-----6---6-----6------|
  G|---7---------7--------|
  D|-7---------7----------|
  A|----------------------|
  E|----------------------|

  Am
  no me puedo olvidar de ella

  e|-------5---------5----|
  B|-----6---6-----6------|
  G|---7---------7--------|
  D|-7---------7----------|
  A|----------------------|
  E|----------------------|

  Dm
  hace un mes que la estoy pensando

  e|-------5---------5----|
  B|-----6---6-----6------|
  G|---7---------7--------|
  D|-7---------7----------|
  A|----------------------|
  E|----------------------|

  Am                          Gm
  y no se si de mi se acuerda

  e|---3--3---3--------|
  B|---3----3----------|
  G|---3---------------|
  D|-------------------|
  A|-------------------|
  E|-------------------|

  Dm
  mi futuro es algo incierto

  e|-------5---------5----|
  B|-----6---6-----6------|
  G|---7---------7--------|
  D|-7---------7----------|
  A|----------------------|
  E|----------------------|

  Am
  pero ese no es el problema

  e|-------5---------5----|
  B|-----6---6-----6------|
  G|---7---------7--------|
  D|-7---------7----------|
  A|----------------------|
  E|----------------------|

  Dm
  donde pongo mi sentimiento

  e|-------5---------5----|
  B|-----6---6-----6------|
  G|---7---------7--------|
  D|-7---------7----------|
  A|----------------------|
  E|----------------------|

  Am                          Gm
  si esta noche hay luna llena

  e|----5----7----8-----10----12--|
  B|------------------------------|
  G|--5----7----9----10----12-----|
  D|------------------------------|
  A|------------------------------|
  E|------------------------------|

  C                     G           Am
  y aunque hoy no estas, voy planificando

  e|---------0----------------|
  B|---0h1-----1--------------|
  G|-------0-----2------------|
  D|-2------------------------|
  A|--------------------------|
  E|--------------------------|

  C              G         Am
  una y otra vez, amores lejanos

  e|---------0----------------|
  B|---0h1-----1--------------|
  G|-------0-----2------------|
  D|-2------------------------|
  A|--------------------------|
  E|--------------------------|

  C                     G               Am
  y aunque hoy no estas, te habro mis brazos

  e|-----5----7----8---9/11--9---9-----------------|
  B|-----------------------------------------------|
  G|--/5---/7---/9-------------9-------------------|
  D|-----------------------------------------------|
  A|-----------------------------------------------|
  E|-----------------------------------------------|

  C             G            Am
  yo me quedare, aquí esperando

  e|--------|
  B|-----1--|
  G|---2----|
  D|-2------|
  A|--------|
  E|--------|

  SOLO

  e|-------------------------------------------------------------|
  B|-----0-1-3---------35-3---8-5-------------------------------|
  G|---2-------2-0-----------------7-5-7-5-----------------------|
  D|-2-------------0---------------------------7-5---------------|
  A|-------------------------------------------------7-5-3/5~----|
  E|-------------------------------------------------------------|

  e|-------------------------------------------------------------|
  B|-----5-8-6-5----5-3-------3~-----------------------------8---|
  G|-5-7---------7------5/45---4-5-4------5/4---------7-7h9---8-|
  D|-------------------------------------7------7-5-7------------|
  A|-------------------------------------------------------------|
  E|-------------------------------------------------------------|

  e|---7-8-7------------------8-7---------------------|
  B|---------10-8--8h10--8-10-----10-8----------------|
  G|-----------------------------------7/9--7-9-------|
  D|--------------------------------------------------|
  A|--------------------------------------------------|
  E|--------------------------------------------------|

  e|---8-7-------8-7/5---10--8h10--8-10-8-------------|
  B|-------10-8--------8------------------------------|
  G|--------------------------------------------------|
  D|--------------------------------------------------|
  A|--------------------------------------------------|
  E|--------------------------------------------------|

  e|----/12-/10-/8-/7-/5-5-|
  B|-----------------------|
  G|----/12-/10-/9-/7-/5-5-|
  D|-----------------------|
  A|-----------------------|
  E|-----------------------|


  C                     G          Am
  y aunque hoy no estas, voy planificando

  e|---------0----------------|
  B|---0h1-----1--------------|
  G|-------0-----2------------|
  D|-2------------------------|
  A|--------------------------|
  E|--------------------------|

  C              G          Am
  una y otra vez, amores lejanos

  e|---------0----------------|
  B|---0h1-----1--------------|
  G|-------0-----2------------|
  D|-2------------------------|
  A|--------------------------|
  E|--------------------------|

  C                     G                Am
  y aunque hoy no estas, te habro mis brazos

  e|----5---3---0--|
  B|---------------|
  G|---------------|
  D|--5---3---0----|
  A|---------------|
  E|---------------|

  C             G         Am
  yo me quedare, aquí esperando.

  e|---------0--------|
  B|---0h1-----1------|
  G|-------2-----2----|
  D|-2-------------2--|
  A|------------------|
  E|------------------|


    oh oh oh oh   oh oh oh oh   oh oh oh oh    oh oh oh oh
  e|-------------------------------------------------------|
  B|----------------------------/8h10-10-10----8h10-10-10--|
  G|-7/9-7-5------7/9-7-5----------------------------------|
  D|---------7------------7--------------------------------|
  A|-------------------------------------------------------|
  E|-------------------------------------------------------|

      oh oh oh oh      oh oh oh oh       oh oh oh oh
  e|--------------------------------------------------|
  B|-8h10-10-10-10-10-10-10-10-10-10-10-10-8-8-8-7-5--|
  G|--------------------------------------------------|
  D|--------------------------------------------------|
  A|--------------------------------------------------|
  E|--------------------------------------------------|

  e|---------------------------|
  B|---------------------------|
  G|-7/9-7-5-7--9-7-7-5--------|
  D|--------------------^7-----|
  A|---------------------------|
  E|---------------------------|


  C                     G           Am
  y aunque hoy no estas, voy planificando

  e|---5---5---5---5---5------7---7---7---7---7-----|
  B|------------------------------------------------|
  D|-5---5---5---5---5------7---7---7---7-----------|
  G|------------------------------------------------|
  A|------------------------------------------------|
  E|------------------------------------------------|

   C             G          Am
  una y otra vez, amores lejanos.

  e|---8---8---12----10---8---7---5-----------------|
  B|------------------------------------------------|
  G|-9---9---12----10---9---7---5-------------------|
  D|------------------------------------------------|
  A|------------------------------------------------|
  E|------------------------------------------------|

  C                     G              Am
  y aunque hoy no estas, te habro mis brazos

  e|-------------3--------------------|
  B|-------0-1h3---3-1---1h3/1--------|
  G|-----2-------------2-------2-0----|
  D|-2-2---------------------------3--|
  A|----------------------------------|
  E|----------------------------------|

  C             G         Am
  yo me quedare, aquí esperando.

  e|----12-----10-----8-----7~------5~-------------|
  B|-----------------------------------------------|
  G|-12-----10-----9-----7--------5~---------------|
  D|-----------------------------------------------|
  A|-----------------------------------------------|
  E|-----------------------------------------------|


  Acordes

     Dm  Am Gm C  G
  e|--1--0--3--0--3-|
  B|--3--1--3--1--0-|
  G|--2--2--4--2--0-|
  D|--0--2--5--3--0-|
  A|--x--x--5--3--2-|
  E|--x--x--3--x--3-|

  Symbolos

  / = slide
  s = slide
   = slide back or forward
  ~ = vibrato o dejar nota sonar
  ^ = bend up
  h = hammer on
  x = no se toca esa cuerda

bueno solo quiero dedicar esta cancion ah raquel te kelo muxo amor
Este fichero es trabajo propio de su transcriptor y representa su interpretación personal de la canción. El material contenido en esta página es
para exclusivo uso privado, por lo que se prohibe su reproducción o retransmisión, así como su uso para fines comerciales.
© LaCuerda.net · Aviso Legal · Privacidad