Tablatura para Guitarra de Enanitos Verdes: Amigos
Conexión · Inscripción
Letras y Acordes
Pantalla Completa
Imprimir
Versión Texto
Añadir Favorito
Otras Versiones

Mostrar Diagramas
Desfile Automático
Manipular Acordes
Formato del Texto


Enanitos Verdes
Amigos(TAB)
calidad:
enan0025
AUTOR: Marciano Cantero
ALBUM: Musicos Poetas y Locos
Enviado por Francisco, basado en Andrés
PARA TODAS MI AMIGAS DIVINAS
Y PARA MIS AMIGO DEL ALMA
y para la amiga que se convirtio en mi vida y mucho mas que una amiga

un besote




LA PIDIERON ASI PUES AQUI ESTA  TAL COMO SE CANTA


No importa el lugar El sol es siempre igual  No importa si es recuerdo

e-|----------------|------------------------|-------------------|
B-|--1-1--3-1--0---|------------------------|-------------------|
G-|-0--------------|--0-2-0-2-0-------------|----------0--------|
D-|----------------|-----------2------------|-2--3-3-3---2--0---|
A-|----------------|------------------------|-------------------|
E-|----------------|------------------------|-------------------|


O es algo que vendrá  No importa cuanto hay  En tus bolsillos hoy

e-|-----------------|----------------------|--------------------|
B-|-----------------|--1-1--3-1--0---------|--------------------|
G-|----------0-0----|-0--------------------|--0-2-0-2-0---------|
D-|-----0-0-0-------|----------------------|------------2b-------|
A-|----3------------|----------------------|--------------------|
E-|-----------------|----------------------|--------------------|


Si nada hemos tenido Y nos iremos igual

e-|-----------------|------------------|
B-|-----------------|------------------|
G-|----------0------|-------------0-0--|
D-|---2-3-3-3--2-0--|---0-0-0----------|
A-|-----------------|--3---------------|
E-|-----------------|------------------|

Pero siempre estarán en Mí  Esos buenos momentos  Que pasamos sin saber

e-|-------0-------3--------|--------------------|---------------------|
B-|---1-3----3-1-3—3--1----|----1-1-1-1-1-1-----|---------------------|
G-|------------------------|--0------------2----|-2-0-2-0-0---0-------|
D-|------------------------|--------------------|-----------3---------|
A-|------------------------|--------------------|---------------------|
E-|------------------------|--------------------|---------------------|

No importa dónde estás  Si vienes o si vas  La vida es un camino
e-|--------------------|------------------|---------------------|
B-|--1--1-3--1-0-------|------------------|---------------------|
G-|-0------------------|---0-2-0-2--0-----|-----------0---------|
D-|--------------------|--------------2---|---2--3-3-3--2-0-----|
A-|--------------------|------------------|---------------------|
E-|--------------------|------------------|---------------------|

Un camino para andar Si hay algo que esconder O hay algo que decir
e-|-----------------|------------------------|-------------------|
B-|-----------------|------1--1-3--1-0-------|-------------------|
G-|----------0-0----|----0-------------------|----0-2-0-2-0------|
D-|----0-0-0--------|------------------------|--------------2----|
A-|---3-------------|------------------------|-------------------|
E-|-----------------|------------------------|-------------------|


Siempre será un amigo  El primero en saber
e-|-------------------|-------------------|
B-|-------------------|-------------------|
G-|----------0--------|-----------0-0-----|
D-|---2-3-3-3--2-0----|-----0-0-0---------|
A-|-------------------|---3---------------|
E-|-------------------|-------------------|


Porque siempre estarán en Mí Esos bellos momentos  Que pasamos sin saber

e-|-------0-------3--------|--------------------|---------------------|
B-|---1-3----3-1-3—3—1b----|----1-1-1-1-1-1-----|---------------------|
G-|------------------------|--0------------2----|-2-0-2-0-0---0-------|
D-|------------------------|--------------------|-----------3---------|
A-|------------------------|--------------------|---------------------|
E-|------------------------|--------------------|---------------------|




Que un amigo es una luz Brillando en la oscuridad.Siempre serás mi amigo
e-|-0----------1-------|-0--------------0--------|--0--------1b--------|
B-|---3—1--0-----3-----|----3-1--0-1--3----------|---3-1-0-------------|
G-|----------2---------|-------------------------|-0-------2-----------|
D-|--------------------|-------------------------|---------------------|
A-|--------------------|-------------------------|---------------------|
E-|--------------------|-------------------------|---------------------|

No importa nada más...
e-|----0-0------------|
B-|--------3-1--------|
G-|-0-0---------------|
D-|-------------------|
A-|-------------------|
E-|-------------------|

Porque siempre estarán en Mí Esos bellos momentos  Que pasamos sin saber

e-|-------0-------3--------|--------------------|---------------------|
B-|---1-3----3-1-3—3—1b----|----1-1-1-1-1-1-----|---------------------|
G-|------------------------|--0------------2----|-2-0-2-0-0---0-------|
D-|------------------------|--------------------|-----------3---------|
A-|------------------------|--------------------|---------------------|
E-|------------------------|--------------------|---------------------|




Que un amigo es una luz Brillando en la oscuridad.Siempre serás mi amigo
e-|-0----------1-------|-0--------------0--------|--0--------1b--------|
B-|---3—1--0-----3-----|----3-1--0-1--3----------|---3-1-0-------------|
G-|----------2---------|-------------------------|-0-------2-----------|
D-|--------------------|-------------------------|---------------------|
A-|--------------------|-------------------------|---------------------|
E-|--------------------|-------------------------|---------------------|

No importa nada más...
e-|----0-0------------|
B-|--------3-1--------|
G-|-0-0---------------|
D-|-------------------|
A-|-------------------|
E-|-------------------|

DUDAS O COMENTARIOS ESCRIBEN A MI CORREO



COmentario: de Francisco Doti Texeira: Te corregi un error minimo
 q habias tenido en el segundo renglon
de tablatura en el compas final q habias puesto todas las notas
 una cuerda abajo,,, el resto estaba perfecto
Este fichero es trabajo propio de su transcriptor y representa su interpretación personal de la canción. El material contenido en esta página es
para exclusivo uso privado, por lo que se prohibe su reproducción o retransmisión, así como su uso para fines comerciales.
© LaCuerda.net · Aviso Legal · Privacidad