Tablatura para Guitarra de En tu Presencia: Estoy Apasionado
Conexión · Inscripción
Letras y Acordes
Pantalla Completa
Imprimir
Versión Texto
Añadir Favorito
Otras Versiones

Mostrar Diagramas
Desfile Automático
Manipular Acordes
Formato del Texto

En tu Presencia
Estoy Apasionado(TAB)
calidad:
etpr0381
AUTOR: En tu Presencia  corregir
ALBUM: Adoración 24
Enviado por richard
Hola
Aqui esta el solo de la canción
espero q sirva d algo
bendiciones

E-------------------------------------------------------------
B-------------12--12--12/14-12---12-------12----12--12/14-12--
G------7/9--9----9---9-------------9-8-8-8----8---8-----------
D-------------------------------------------------------------
A-------------------------------------------------------------
e-------------------------------------------------------------

E-------------------------------------------------------------
B--12---12/14-14-------12-12-------------------------12-------
G-----9-----------13-13------9-9-11--9-11b13-11b13r11---11-9--
D-------------------------------------------------------------
A-------------------------------------------------------------
e-------------------------------------------------------------

E--------------------12-----14-----12-----14-----16-----14-----16-
B---------------12-----12-12--12-12--12-12--12-12--12-12--12-12---
G-11-9--9--11/13--13----------------------------------------------
D-----11----------------------------------------------------------
A-----------------------------------------------------------------
e-----------------------------------------------------------------

E----17--16--14--12----14---14/16---16/19-19----17-16-------------
B--12--12--12--12---------12------12------------------19b21r19----
G-----------------------------------------------------------------
D-----------------------------------------------------------------
A-----------------------------------------------------------------
e-----------------------------------------------------------------


cualquier consulta o correccion -----> richard_s_chico77@hotmail.com
Pd: si quieren la tablatura en guitar pro contactenme
Envía el tono de "Estoy Apasionado" a tu celular/móvil
Este fichero es trabajo propio de su transcriptor y representa su interpretación personal de la canción. El material contenido en esta página es
para exclusivo uso privado, por lo que se prohibe su reproducción o retransmisión, así como su uso para fines comerciales.
© LaCuerda.net · Aviso Legal · Privacidad