Tablatura para Guitarra de En Espiritu y en Verdad: Vamos a cantar
Conexión · Inscripción
Letras y Acordes
Pantalla Completa
Imprimir
Versión Texto
Añadir Favorito
Otras Versiones

Mostrar Diagramas
Desfile Automático
Manipular Acordes
Formato del Texto

En Espiritu y en Verdad
Vamos a cantar(TAB)
calidad:
eeyx0274
AUTOR: Chris Tomlin
ALBUM: Asombroso Amor (2009)
Enviado por obed
Intro:                               x10
e----------------------11-11-|---11--11------------
B---------------11--11-------|-----------------
G------------8----8----------|8-8-----------
D----------------------------|--------
A----------------------------|--------------
E----------------------------|-------------

Coro:

      D#
Vamos a cantar con la música del cielo
      Cm
Vamos a cantar alegres porque escuchas
        Bb         G#             D#
Cuando cantamos para exaltar tu nombre

e-----------------------------------------
B-----------------------------------------
G----------------------------------------- X6
D--8-8-8-8-8-8-8-13-12-12-12-8------------
A--6-6-6-6-6-6-6/11-10-10-10/6------------
E-----------------------------------------


Verso 1:

D#
Amamos todo de ti

Cielo y tierra te adoran
Cm
Los reinos se rinden

Hijo de Dios
              Bb
Tú eres por quien
              G#
Tú eres por quien
        D#
Vivimos hoy


Verso 2:

D#
Tú eres quien nos liberta

Tú eres la Luz que guía
Cm
Como un fuego ardiente

Hijo de Dios
              Bb
Tú eres por quien
              G#
Tú eres por quien
        D#
Vivimos hoy


e-----------------------------------------
B-----------------------------------------
G----------------------------------------- X2
D--8-8-8-8-8-8-8-13-12-12-12-8------------
A--6-6-6-6-6-6-6/11-10-10-10/6------------
E-----------------------------------------



Coro:

      D#
Vamos a cantar con la música del cielo
      Cm
Vamos a cantar alegres porque escuchas
        Bb         G#             D#
Cuando cantamos para exaltar tu nombre

e-----------------------------------------
B-----------------------------------------
G----------------------------------------- X6
D--8-8-8-8-8-8-8-13-12-12-12-8------------
A--6-6-6-6-6-6-6/11-10-10-10/6------------
E-----------------------------------------



Intermedio: D# C# Cm D# - (D#)


solo

e------------------------------10b11--10b11---10b11---10b11--
B------------7----7------------------------------------------
G--------7b----7b------7b-------------------------------------
D-------------------------------------------------------------
A------------------------------------------------------------
E----------------------------------------------------------------

eso es todoo
Envía el tono de "Vamos a cantar" a tu celular/móvil
Este fichero es trabajo propio de su transcriptor y representa su interpretación personal de la canción. El material contenido en esta página es
para exclusivo uso privado, por lo que se prohibe su reproducción o retransmisión, así como su uso para fines comerciales.
© LaCuerda.net · Aviso Legal · Privacidad