Tablatura para Bajo de En Espiritu y en Verdad: Los santos vienen ya
Conexión · Inscripción
Letras y Acordes
Pantalla Completa
Imprimir
Versión Texto
Añadir Favorito
Otras Versiones

Mostrar Diagramas
Desfile Automático
Formato del Texto

En Espiritu y en Verdad
Los santos vienen ya(BAJ)
calidad:
eeyx0012
AUTOR: En Espiritu y en Verdad  corregir
ALBUM: desconocido (2007)
Enviado por Daniel
Intro:

E|--------------
A|-0--3---------
D|-------3---5--
G|--------------   x2

E|--1------5--8-
A|--------------
D|--------------  x4
G|--------------

Verso 1:

Las voces de justicia inundan la tierra..
E|------------------------------------
A|-0---------3------------------------
D|--------------------3-----------5---
G|------------------------------------

cuando termina de decir "la tierra..." hacemos esto:

Descante:

E|-5--3--0--
A|----------
D|---------- Y CAEMOS EN LA LA 2º CUERDA "A"
G|----------

y hacemos el Veros 1: con voces de...

Pre-coro:

Son los justos..
E|-------3---
A|-----3-----
D|--3---------  x2
G|----------

Coro:

E|-------3--------3--
A|-----3-------3----
D|--3--------3------
G|-------------------

y la luz res...
E|----------------------3-
A|--5--7--8----5--7--0----
D|------------------------
G|------------------------


Verso 2:

vienen goy para adorar...  LO MISMO QUE EL VERSO 1

Coro: x2

Instrumental:
E|---------1-1--------1-1--3---
A|--0-- 3------0--3----------3-
D|-----------------------------
G|-----------------------------

solo de guitarra.

Hosana al rey...
E|-------3---
A|-----3-----
D|--3--------
G|-----------


Bendiciones hermanos
Envía el tono de "Los santos vienen ya" a tu celular/móvil
Este fichero es trabajo propio de su transcriptor y representa su interpretación personal de la canción. El material contenido en esta página es
para exclusivo uso privado, por lo que se prohibe su reproducción o retransmisión, así como su uso para fines comerciales.
© LaCuerda.net · Aviso Legal · Privacidad