Tablatura para Guitarra de Elefante: Durmiendo con la luna
Conexión · Inscripción
Letras y Acordes
Pantalla Completa
Imprimir
Versión Texto
Añadir Favorito
Otras Versiones

Mostrar Diagramas
Desfile Automático
Manipular Acordes
Formato del Texto

Elefante
Durmiendo con la luna(TAB)
calidad:
elft0384
AUTOR: Rafa
ALBUM: Elefante (2004)
Enviado por Daniel
Aquí les dejo otra rola de Elefante muy padre para todos
nosotros los enamorados OK y ke me recuerda mucho a mi novia

Todo el Intro y el Primer Coro con Palm Mute
y es a dos guitarras una va con los acordes y
la otra va haciendo los adornos

Intro:
              C (Palm Mute)
E|-xxxxxxxxxxxxxxxxxxxxxxxxxxxxxxxxxxxx-|
B|-xxxxx1x1x1x1x1x1x1x1x1x1x1x1x1x1x1xx-|
G|-xxxxxxxxxxxxxxxxxxxxxxxxxxxxxxxxxxxx-|
D|-xxxxx2x2x2x2x2x2x2x2x2x2x2x2x2x2x2xx-|
A|-xxxxx3x3x3x3x3x3x3x3x3x3x3x3x3x3x3xx-|
E|-xxxxxxxxxxxxxxxxxxxxxxxxxxxxxxxxxxxx-|

     C                           G
Aquí estoy, entre el amor y el olvido
E|-xxxxxxxxxxxxxxxxxxxxxxxxxx3x3x3x3x3x-|
B|-1x1x1x1x1x1x1x1x1x1xxxxxxx3x3x3x3x3x-|
G|-xxxxxxxxxxxxxxxxxxxxxxxxxx4x4x4x4x4x-|
D|-2x2x2x2x2x2x2x2x2x2xxxxxxx5x5x5x5x5x-|
A|-3x3x3x3x3x3x3x3x3x3xxxxxxx5x5x5x5x5x-|
E|-xxxxxxxxxxxxxxxxxxxxxxxxxx3x3x3x3x3x-|
                     Am
Entre recuerdos y el frió
E|-xxxxxxxxxxxxxxxxxxxxxxxxxxxxxxxxxxxx-|
B|-xxxxxxxxxxxxx1x1x1x1x1x1x1x1xxxxxxxx-|
G|-xxxxxxxxxxxxx2x2x2x2x2x2x2x2xxxxxxxx-|
D|-xxxxxxxxxxxxx2x2x2x2x2x2x2x2xxxxxxxx-|
A|-xxxxxxxxxxxxxxxxxxxxxxxxxxxxxxxxxxxx-|
E|-xxxxxxxxxxxxxxxxxxxxxxxxxxxxxxxxxxxx-|
F                      C
Entre el silencio y tu voz
E|-1x1x1x1x1x1x1xxxxxxxxxxxxxxxxxxxxxxx-|
B|-1x1x1x1x1x1x1xxxxxxx1x1x1x1x1x1x1x1x-|
G|-2x2x2x2x2x2x2xxxxxxxxxxxxxxxxxxxxxxx-|
D|-3x3x3x3x3x3x3xxxxxxx2x2x2x2x2x2x2x2x-|
A|-3x3x3x3x3x3x3xxxxxxx3x3x3x3x3x3x3x3x-|
E|-xxxxxxxxxxxxxxxxxxxxxxxxxxxxxxxxxxxx-|


     C                         G
Aquí estoy viendo pasar los segundos
E|----------------------------------|
B|--1-1----------------------3-3----|
G|-0------------------------0-------|
D|----------------------------------|
A|----------------------------------|
E|----------------------------------|
                    Am
 Viendo pasar los minutos
E|----------------------------------|
B|--------------------1-1--1-1------|
G|------------------2-----2---------|
D|----------------------------------|
A|----------------------------------|
E|----------------------------------|
F                 C
Viendo pasar el amor
E|----------------------------------|
B|--------------------1-1--1-1------|
G|-------------------0----0---------|
D|----------------------------------|
A|----------------------------------|
E|----------------------------------|
     G                        Am
Aquí estoy con la sonrisa fingida
E|----------------------------------------|
B|---------3-3--3-3--------------1-1--1-1-|
G|--------0----0----------------2----0----|
D|----------------------------------------|
A|----------------------------------------|
E|----------------------------------------|
                    C
Que me dejo tu partida
E|----------------------------------|
B|--------------------1-1--1-1------|
G|------------------2-----0---------|
D|----------------------------------|
A|----------------------------------|
E|----------------------------------|
               G
Como un verano sin sol
E|--------------------------------|
B|---------3-3--------------------|
G|--------0-----------------------|
D|--------------------------------|
A|--------------------------------|
E|--------------------------------|
      F-F7
Aquí estoy
E|-------------111--------|
B|---------1-1-111--------|
G|-------2-----222--------|
D|-------------111--------|
A|-------------333--------|
E|-------------111--------|
                     C
Sin la mitad de mi vida
                   G
Un callejón sin salida
                   F
Viendo la vida pasar


  C                             G
Aquí estoy cantándole a la fortuna
E|----------------------------------|
B|--1-1----------------------3-3----|
G|-0------------------------0-------|
D|----------------------------------|
A|----------------------------------|
E|----------------------------------|
                 Am
Soñando con tu cintura
E|----------------------------------|
B|--------------------1-1-----------|
G|------------------2---------------|
D|----------------------------------|
A|----------------------------------|
E|----------------------------------|
F                  C
Con lo que nunca será
E|----------------------------------|
B|-------------------1-1------------|
G|------------------0---------------|
D|----------------------------------|
A|----------------------------------|
E|----------------------------------|
 C                          G
Aquí estoy enredado con la duda
E|----------------------------------------|
B|---------1-1--1-1--------------3-3--3-3-|
G|--------0----0----------------0----0----|
D|----------------------------------------|
A|----------------------------------------|
E|----------------------------------------|
                   Am
Durmiéndome con la luna
E|----------------------------------|
B|--------------------1-1---1-1-----|
G|------------------2-----2---------|
D|----------------------------------|
A|----------------------------------|
E|----------------------------------|
F                  C
Despertando con el sol
E|----------------------------------|
B|--1-1---1-1-----------------------|
G|-0----0---------------------------|
D|----------------------------------|
A|----------------------------------|
E|----------------------------------|


 G                            Am
Aquí estoy con la sonrisa fingida
E|----------------------------------------|
B|---------3-3--3-3--------------1-1--1-1-|
G|--------0----0----------------2----2----|
D|----------------------------------------|
A|----------------------------------------|
E|----------------------------------------|
                    C
Que me dejo tu partida
E|----------------------------------|
B|--1-1---1-1-----------------------|
G|-0----0---------------------------|
D|----------------------------------|
A|----------------------------------|
E|----------------------------------|
                   G
Como un verano sin sol
E|----------------------------------|
B|--3-3-----------------------------|
G|-0--------------------------------|
D|----------------------------------|
A|----------------------------------|
E|----------------------------------|

      F-F7
Aquí estoy
E|-------------111--------|
B|---------1-1-111--------|
G|--------2----222--------|
D|-------------111--------|
A|-------------333--------|
E|-------------111--------|



    C
Sin la mitad de mi vida
                   G
Un callejón sin salida
                  F
Viendo la vida pasar


Solo: Aqui las notras entre () son las ke apenas y se escuchan

E|--------------------------3-3-5----7--7-|
B|---5-5-(5) --6-6-(6) ---------------5---|
G|--5-5-------5-5----------5-5------5-----|
D|----------------------------------------|
A|----------------------------------------|
E|----------------------------------------|


E|---8-8-------10-10--------8-8-----7-7-(7) -|
B|--5-5-------6--6---------5-5-----5-5-------|
G|-------------------------------------------|
D|-------------------------------------------|
A|-------------------------------------------|
E|-------------------------------------------|

E|---8-8-(8) --10-10-(10) ----12-12-12--10-10--|
B|--5-5-------6--6-----------8--8------6--6----|
G|---------------------------------------------|
D|---------------------------------------------|
A|---------------------------------------------|
E|---------------------------------------------|

E|---8-8-----8-8-8-7--|
B|--5-5-----5-5-------|
G|--------------------|
D|--------------------|
A|--------------------|
E|--------------------|



  F                   C
Sin la mitad de mi vida
              G
Un callejón sin salida
                 F
Viendo la vida pasar
 F                      C
Aquí estoy, curándome las heridas
                G
Durmiéndome con la luna
                  F
Despertando con el sol,
    C
Aquí estoy.

              C (Con Palm Mute)
E|-xxxxxxxxxxxxxxxxxxxxxxxxxxxxxxxxxxxx-|
B|-xxxxx1x1x1x1x1x1x1x1x1x1x1x1x1x1x1xx-|
G|-xxxxxxxxxxxxxxxxxxxxxxxxxxxxxxxxxxxx-|
D|-xxxxx2x2x2x2x2x2x2x2x2x2x2x2x2x2x2xx-|
A|-xxxxx3x3x3x3x3x3x3x3x3x3x3x3x3x3x3xx-|
E|-xxxxxxxxxxxxxxxxxxxxxxxxxxxxxxxxxxxx-|
Envía el tono de "Durmiendo con la luna" a tu celular/móvil
Este fichero es trabajo propio de su transcriptor y representa su interpretación personal de la canción. El material contenido en esta página es
para exclusivo uso privado, por lo que se prohibe su reproducción o retransmisión, así como su uso para fines comerciales.
© LaCuerda.net · Aviso Legal · Privacidad