Tablatura para Guitarra de Elefante: Asi Es La Vida
Conexión · Inscripción
Letras y Acordes
Pantalla Completa
Imprimir
Versión Texto
Añadir Favorito
Otras Versiones

Mostrar Diagramas
Desfile Automático
Manipular Acordes
Formato del Texto

Elefante
Asi Es La Vida(TAB)
calidad:
elft0027
AUTOR: Rafa, Reyli
ALBUM: El Que Busca Encuentra (01)
Enviado por ALFREDO
ES LA VERSIÓN COMPLETA DE ESTA ROLA TAL VES TENGA PARECIDO CON OTRA PERO NOOOO ES LA VERSIÓN ORIGINAL Y LA MAS CHIDA!!!!!  

(\) SOLO SUBEN LA CUERDA CON EL DEDO EN CUESTION
Y LOS ACORDES

SOL
DO 
RE7

INTRO:
|-----------3-5-3------3------2-----5----8----11-|
|---------3------6-3---3-----1-----4----7----10--|
|-------3-----------3--3----2-----5----8----11---|
|-----5----------------5---1-----4----7----10----|
|---5------------------5-------------------------|
|-3--------------------3-------------------------|
                          y que me traigan mas botellas   
|-----------3-5-3------3--------------------------------3-----|
|---------3------6-3---3-------------------------------4-4-4--|
|-------3-----------3--3------------------------------5---5---|
|-----5----------------5-----------------------------5--------|
|---5------------------5----------------------------3---------|
|-3--------------------3--------------------------------------|
    para quitarme este sabor de su sudor
|-------------2-------2-------------3-5-3------3--|
|----------1-----1------1---------3------6-3---3--|
|-------2-----------2-----------3-----------3--3--|
|----0------------------------5----------------5--|
|-0-------------------------5------------------5--|
|-------------------------3--------------------3--|
  y que me apunten en la cuenta,              toda la desgracia que dejo
|-----------------------------------3--------------0----0-------------------2|
|---------------------------------4---4---4-------2--2----2----------------1-|
|-------------------------------5-------5--------0-----0----0-------------2--|
|-----------------------------5-----------------2------------------------0---|
|---------------------------3------------------0-----------------------0-----|
|----------------------------------------------------------------------------|
    
|---------2-------4-------5-------|
|---------------------------------|
|----2-------4-------6------------|
|---------------------------------|
|---------------------------------|
|---------------------------------|
 
e|---3--5---6----------|
B|---------------------|
G|--3--5---7-----------|
D|---------------------|
A|---------------------|
E|---------------------|







(así es la vida compa')
SOLm
Que no quieres nada mas de mí
Que te fuiste con ese infeliz
DOm
Que importa,
Que importa;

(Como dice como dice)
RE7
Que me va a matar la depresión
Que voy a vivir en el alcohol
SOLm
Que importa           (déjala jala)
Que importa
SOLm
Que te fuiste sin decir adiós
Que no dormirás en mi colchón
DOm
Que importa
(Como no como no)
Que importa
RE7
Que ensuciaste mi reputación
Que te vale madres este amor
SOLm
Que importa 
(Como dice como dice)
que importa
(mami)

CORO
        DOm      FA
Y que te quise demasiado
       RE7        
Y que nadie te ha querido como yo
            SOLm
Así es la Vida
                    DOm
De caprichosa, aveces negra, aveces color rosa
          FA                   RE7
Así es la vida, jacarandosa, té quita te pone te sube, té baja y aveces te lo da
Así es la Vida
                    DOm
De caprichosa, aveces negra, aveces color rosa
          FA                   RE7
Así es la vida,(mami) jacarandosa(sube), té quita te pone te sube, té baja y aveces te lo da

Así es la vida..

(solo)--- Guitarra acústica---

e|--10-10-10-10-11-11-------10-10-----------------------|
B|--------------------13-13--------11-11-13-13-12-12----|
G|------------------------------------------------------|
D|------------------------------------------------------|
A|------------------------------------------------------|
E|------------------------------------------------------|







e|------------------|
B|--11---11---11----|
G|--12---12---12----|
D|------------------|
A|------------------|
E|------------------|
   
 | R   A   P   I   D   O |
e|--13-13-13-13--13-13-13-13--13-13-13--11-10-10p11-11-|
B|-----------------------------------------------------|
G|-----------------------------------------------------|
D|-----------------------------------------------------|
A|-----------------------------------------------------|
E|-----------------------------------------------------|

e|-------------13-13-------------------------------|
B|-13-13-13-13-------10-10-13-13-------10-10-------|
G|--------------------------------10-10------------|
D|-------------------------------------------------|
A|-------------------------------------------------|
E|-------------------------------------------------|
 |--- rápido ---|
e|-13-13-13-13-11-10-------11--11-------|
B|-------------------13-----------------|
G|-----------------------11--11---------|
D|--------------------------------------|
A|--------------------------------------|
E|--------------------------------------|

e|-10--11--10--8--6--5--3---------------|
B|--------------------------------------|
G|-11--11--11--8--7--5--3---------------|
D|--------------------------------------|
A|--------------------------------------|
E|--------------------------------------|
SOLm
Que me desangraste el corazón
Que me hará justicia la razón
DOm
Que importa
(como no como no)
que importa
(viene Ya)
RE7
Que tu vida es un carnaval
Que tarde o temprano volverás
SOLm
Que importa
(Como dice como dice)
Que importa
(Sube)
CORO
        DOm      FA
Y que te quise demasiado
       RE7        
Y que nadie te ha querido como yo
            SOLm
Así es la Vida
                    DOm
De caprichosa, aveces negra, aveces color rosa
          FA                   RE7
Así es la vida, jacarandosa, té quita te pone te sube, té baja y aveces te lo da
Así es la Vida
  


                  DOm
De caprichosa, aveces negra, aveces color rosa
          FA                   RE7
Así es la vida,(mami) jacarandosa(sube), té quita te pone te sube, té baja y aveces te lo da
Así es la vida..


(solo) Guitarra eléctrica
e|------------------------------------------|
B|------------------------------------------|
G|-------7-7--7-----------------------------|
D|--8-10--------10-8------------------------|
A|------------------------------------------|
E|------------------------------------------|

e|------------------------------------------|
B|------------------------------------------|
G|-------7-8--8-8-7-------------------------|
D|--8-10------------10-10-------------------|
A|------------------------------------------|
E|------------------------------------------|

e|------------------------------------------|
B|--10-11-13-11-11-11-10-10-10--------------|
G|-----------------------------12-12-12-10--|
D|------------------------------------------|
A|------------------------------------------|
E|------------------------------------------|

e|------------------------------------------|
B|--11-11-10-10-10--------------------------|
G|-----------------12-12-12-10-10-10--------|
D|------------------------------------------|
A|------------------------------------------|
E|------------------------------------------|
(Sube)
e|--------------10----10-------10--10\------|
B|--10-11-11\13----13----13-11--------------|
G|------------------------------------------|
D|------------------------------------------|
A|------------------------------------------|
E|------------------------------------------|


Así es la Vida
                    DOm
De caprichosa, (y he he ye) aveces negra, aveces color rosa
          FA                   RE7
Así es la vida, (Así es la Vida) jacarandosa, (y he he ye) té quita te pone te sube, té baja y aveces te lo da

(MIENTAS CANTA EL CORO CANTA LA ESTROFA CLARO CON DOS VOCALES)
Así es la Vida   
 DOm
De caprichosa, (y he he ye)  aveces negra, aveces color rosa
          FA                   RE7
Así es la vida, jacarandosa, té quita te pone te sube, té baja y aveces te lo da








CORO
SOLm
Escúchame negra
Me dejaste esperando
DOm
Me jugué la camiseta y perdí hasta el encanto
               FA
Chida ver la vida
Ya a me estoy desangrando        
       RE7
Hay mamita querida me voy de tu vida y tu sigues bailando
SOLm
Así es la Vida
                    DOm
De caprichosa, aveces negra, aveces color rosa
          FA                   RE7
Así es la vida, jacarandosa, té quita te pone te sube, té baja y aveces te lo da
Así es la Vida
                    DOm
De caprichosa, aveces negra, aveces color rosa
          FA                   RE7
Así es la vida, jacarandosa, té quita te pone te sube, té baja y aveces te lo da

Así es la vida

ESTA ROLA ESTA DEDICADA PARA TODO PERO PARA TODO LO QUE FUE EL GRUPO 18       (6° sem.) DE LA PREPA 1 EN TOLUCA MEXICO NO SE PREOCUPEN ASI ES LA VIDA 

CREO QUE LA ROLA ESTA COMPLETA PERO SI TIENEN DUDA O ACLARACIONES O UNA QUE OTRA MENTADA PUEDEN MANDARLA A MI E-MAIL Ha_mun_ra@hotmail.com
Envía el tono de "Asi Es La Vida" a tu celular/móvil
Este fichero es trabajo propio de su transcriptor y representa su interpretación personal de la canción. El material contenido en esta página es
para exclusivo uso privado, por lo que se prohibe su reproducción o retransmisión, así como su uso para fines comerciales.
© LaCuerda.net · Aviso Legal · Privacidad