Letra y Acordes de Edgar Oceransky: Ella lo sabe
Conexión · Inscripción
Letras y Acordes
Pantalla Completa
Imprimir
Versión Texto
Añadir Favorito
Otras Versiones

Mostrar Diagramas
Desfile Automático
Manipular Acordes
Formato del Texto

Edgar Oceransky
Ella lo sabe
calidad:
eoce0441
AUTOR: Abel Velazquez
ALBUM: Solo (2007)
Enviado por Cnaim
Naim - Sound
http://Naim-Sound.hi5.com

Intro !!!

Esta muy facil solo son arreglos en las notas D,D#F,Em,A
Se los pongo en tab para ke sea mas facil aun.

     Estas 3 en  D
E||--2-0-----------0-------|--2-0-----------0-------|--2-0-----------0-|
B||------3-3---------3-----|------3-3---------3-----|------3-3---------|
G||----------2---2-----2---|----------2---2-----2---|----------2---2---|
D||--0-0-0-0---0---------0-|--0-0-0-0---0---------0-|--0-0-------0-----|
A||------------------------|------------------------|------------------|
E||------------------------|------------------------|------------------|

 D/F#                   Em                    A
------0-----0---|------------0-----|--------------------0-|
--0-3---3-----3-|----------0---0---|--------2-----3-------|
----------2-----|--------0-------0-|------2---2-----2-----|
----------------|------2-----------|----2-------2-----2---|
----------------|----2-------------|--0-------------------|
--0-2-----------|--0---------------|----------------------|

* CONSEJO EN LA CANCION .(ALGUNOS YA LO SABRAN PERO PARA LOS QUE NO)
  CASI TODAS LAS NOTAS D Y G LAS TOKA KON LA 1ERA cUERDA AL AIRE.


D                                         G
Fiel a mi costumbre intento pasarte de largo
D                              G
Por temor a ke mi piel rekuerde ke murio en tus brazos
Gm                           D         D/C#       Bm   A
La fe se me escapo kontigo perdieron rumbo mis zapatos
     G                  D/F#             Em             A
En la deriva aveces lloro imaginando todo lo que no pasamos
         G                D
Y ella lo sabe  y no dice nada
         G    D/F#     Em                                   F#7
Ella lo sabe      que tras de tu recuerdo un dia se me fugo el alma


        Bm            Cdim
Ella no hiere komo tu
         Em
No exige tiempo komo tu
        A                Edim         D     F#7
Llego una noche y se quedo a esperar el alba
        Bm            Cdim
Ella no actua komo tu
       Em
No finge amor tal komo tu
        A           F#7
Me mira y sabe que tal vez
            Bm, A, G, F#7,   Bm, A, G, A
No habra mañana


D                                                G
trate con mas pena que gloria de olvidar tu espalda
D                                      G
pero mi cuerpo en otros brazos terminaba por trazar tu mapa
Gm                                 D       D/C#       Bm   A
tu nombre me quebro el silencio se me escapo de madrugada
     G                  D/F#             Em                 A
no he dormido y por error le suplique a la noche que te regresara
         G                D
y ella lo sabe  y no dice nada
         G    D/F#     Em                                   F#7
ella lo sabe        que tras de tu recuerdo un dia se me fugo el ama



        Bm            Cdim
Ella no hiere komo tu
         Em
No exige tiempo komo tu
        A                Edim         D     F#7
Llego una noche y se quedo a esperar el alba
        Bm            Cdim
Ella no actua komo tu
       Em
No finge amor tal komo tu
        A            Edim
Me mira y sabe que tal vez
            D
No habra mañana
      G                  F#7
ella es tan diferente tan distante tan callada

        Bm            Cdim
Ella no hiere komo tu
         Em
No exige tiempo komo tu
        A                Edim         D     F#7
Llego una noche y se quedo a esperar el alba
        Bm            Cdim
Ella no actua komo tu
       Em
No finge amor tal komo tu
        A           F#7
Me mira y sabe que tal vez
            Bm, A, G, F#7,   Bm, A, G, A
No habra mañana




D                                         G
llueve en el silencio ausente de mis desengaños
D                                           G
por ke el olvido no me deja reescribir la historia fuera de tus brazos
         G                 D
y ella lo sabe  y no dice nada
         G    D/F#    Em                        A
ella lo sabe        que tras de tu recuerdo un dia
              G      D
se me fugo el alma


     D/F#    F#7    D    G    Gm    Bm    A    Em    Cdim    Edim    D/C#

E||--0---|--2---|--2-|--3-|--3--|--2--|--0-|--0--|--2----|--0----|--2----||
B||--3---|--2---|--3-|--0-|--3--|--3--|--2-|--0--|--4----|--2----|--3----||
G||--2---|--3---|--2-|--0-|--3--|--4--|--2-|--0--|--2----|--0----|--2----||
D||--0---|--2---|----|--0-|--5--|--4--|--2-|--2--|--4----|--2----|-------||
A||--0---|--4---|----|--2-|--5--|--2--|--0-|--2--|--3----|--1----|--4----||
E||--2---|--2---|----|--3-|--3--|--2--|----|--0--|--2----|-------|-------||

Naim - Sound
http://Naim-Sound.hi5.com
Envía el tono de "Ella lo sabe" a tu celular/móvil
Este fichero es trabajo propio de su transcriptor y representa su interpretación personal de la canción. El material contenido en esta página es
para exclusivo uso privado, por lo que se prohibe su reproducción o retransmisión, así como su uso para fines comerciales.
© LaCuerda.net · Aviso Legal · Privacidad