Tablatura para Guitarra de Duncan Dhu: A un minuto de ti
Conexión · Inscripción
Letras y Acordes
Pantalla Completa
Imprimir
Versión Texto
Añadir Favorito
Otras Versiones

Mostrar Diagramas
Desfile Automático
Manipular Acordes
Formato del Texto


Duncan Dhu
A un minuto de ti(TAB)
calidad:
ddhu0722
AUTOR: Duncan Dhu  corregir
ALBUM: desconocido
Enviado por JESUA
INTRO
e-|----------------------------------- 5|--------||
B-|---------5--------5--------5--------5|--------||
G-|--------5--5--------5-----5--5------5|--------||
D-|----7----------7--------7-----------7|--------||
A-|---7---------7---------7------------7|--------||
E-|-------------------------------------|--------||

e-|--55--333--5----3-----------------------|--------||
B-|--------------5---5---333--5--3---------|--------||
G-|--------------------------------5--2----|--------||
D-|----------------------------------------|--------||
A-|----------------------------------------|--------||
E-|----------------------------------------|--------||

e-|----------------------------------------|--------||
B-|-------------------5--3-----------------|--------||
G-|--2--4--5-5--222--------5-4-5--7--5-4---|--------||
D-|----------------------------------------|--------||
A-|----------------------------------------|--------||
E-|----------------------------------------|--------||

e-|--10/10--8-7----5-5---7-8/8--5-5-5------|--------||
B-|----------------------------------------|--------||
G-|----------------------------------------|--------||
D-|----------------------------------------|--------||
A-|----------------------------------------|--------||
E-|----------------------------------------|--------||

e-|--5------------------------------|--------||
B-|----8--6-5--8----6-5-------------|--------||
G-|---------------------------------|--------||
D-|---------------------------------|--------||
A-|---------------------------------|--------||
E-|---------------------------------|--------||

e-|---------------------------------|--------||
B-|---------------------------------|--------||
G-|---------------------------------|--------||
D-|---------------------------------|--------||
A-|---------------------------------|--------||
E-|---------------------------------|--------||

Antes de tres lunas volveria por ti
  Antes que me heche de menos
F
Dejaste viñas,huertas, vidas al pasar Nunca te he esperado tanto
F C G
A un minuto de ti, voy detras de ti
F C G
A un minuto de ti, te seguire
F
El viento se ha calzado sus guantes de piel Se entretiene con mi pelo
F
Bebo el agua que viene conmigo, estoy estancado en tu reflejo
F C G
Solamente bebi, gota a gota
F C G
Solamente bebi, veneno y hiel CORO:
D F C
Llegare solo hasta el final
G D F C
Naaada que puedo perder
G D F C
Me atrevere cuento un paso mas
G D F C
Naaada no soy como tu SOLO. e-|---------------------------------|--------|| B-|---------------------------------|--------|| G-|---------------------------------|--------|| D-|---7-7-7--5-7-5-----5-7----------|--------|| A-|-----------------8---------------|--------|| E-|---------------------------------|--------|| e-|---------------------------------|--------|| B-|---------------------------------|--------|| G-|---7--5---7--5-----5-5-----------|--------|| D-|----------------7-------7--5-----|--------|| A-|---------------------------------|--------|| E-|---------------------------------|--------|| e-|---11-11----9-11-9-11-9--------9-|--------|| B-|-------------------------11-11---|--------|| G-|---------------------------------|--------|| D-|---------------------------------|--------|| A-|---------------------------------|--------|| E-|---------------------------------|--------|| e-|---------------------------------|--------|| B-|---9--11-11/13-13-13-11-13--9-11-|--------|| G-|---------------------------------|--------|| D-|---------------------------------|--------|| A-|---------------------------------|--------|| E-|---------------------------------|--------|| e-|---------------------------------|--------|| B-|--17-17--19--17-15---------------|--------|| G-|-------------------17-15---17--17|--------|| D-|---------------------------------|--------|| A-|---------------------------------|--------|| E-|---------------------------------|--------|| e-|----------------------------------|--------|| B-|----------------------------------|--------|| G-|--15----15-----17--15--15---------|--------|| D-|-----17----17-------------17-15-13|--------|| A-|----------------------------------|--------|| E-|----------------------------------|--------|| e-|---------------------------------|--------|| B-|---------------------------------|--------|| G-|--11-8-11-8-11-8-11-8------------|--------|| D-|-----------------------11-8-11---|--------|| A-|---------------------------------|--------|| E-|---------------------------------|--------||
F C G Em
A un minuto de ti, voy detras de ti
F C G
A un minuto de ti, te seguire
D F C
Voy hacer braceo en espiral
G D F C
Naaada me vuelvo a repetir
G D F C
Saltare planeo en derredor
G D F C
Naaada no soy como tu
G D F C
Llegare solo hasta el umbral
G D F C
Naaada que puedo perder
G D F C
Me atrevere cuento un paso mas
G D F C G
Naaada no soy como tu SALUDOS A LOS ESPIRITUS DE OCOTLAN OAX.
Este fichero es trabajo propio de su transcriptor y representa su interpretación personal de la canción. El material contenido en esta página es
para exclusivo uso privado, por lo que se prohibe su reproducción o retransmisión, así como su uso para fines comerciales.

© LaCuerda.net · Aviso Legal · Privacidad