Tablatura para Guitarra de Dread Mar I: Más allá de tus ojos
Conexión · Inscripción
Letras y Acordes
Pantalla Completa
Imprimir
Versión Texto
Añadir Favorito
Otras Versiones

Mostrar Diagramas
Desfile Automático
Manipular Acordes
Formato del Texto

Dread Mar I
Más allá de tus ojos(TAB)
calidad:
dmxx0513
AUTOR: Mariano j Castro
ALBUM: Vivi en do (2010)
Enviado por Maximiliano
Bueno aqui les dejo mi primera tab y mi primer post en la cuerda.net,
espero que les guste y dependiendo de esto voy a seguir aportando.

La cancion son los mismo acordes siempre Em C D, en la intro se tocan
las 4 primeras cuerdas lentamente. Obviamente la guitarra no suena
como un saxo pero esta bastante parecido.

INTRO

E|-----------------|---------------------------------|---------------
B|-----------------|---------------------------------|-------------12
G|-------12h14-----|-------14---------12h14----------|-------12h14---
D|-12h14-------12~-|-14-12----14-12-14------12h14p12-|-12h14---------
A|-----------------|---------------------------------|---------------
E|-----------------|---------------------------------|---------------

E|--------------------------|-------------------------------||
B|-15-15-12-----------------|-------------------------------||
G|----------14-12-14b16-14~-|-------12h14b16b14-12----------||
D|--------------------------|-12h14----------------12h14p12-||
A|--------------------------|-------------------------------||
E|--------------------------|-------------------------------||


SOLO   X4

E|-------------------------------------||
B|-------------------------------------||
G|----------12----------12-------------||
D|-12h14-12----12h14-12----12-14-12----||
A|----------------------------------12-||
E|-------------------------------------||


FINAL

                                            X3
E|-------------------------|----------------------------------|
B|-------------------------|----------------------------------|
G|-------12-------14-------|-14-12----------------------------|
D|-12-14----14-12----14-12-|-------14-12-14-12----------------|
A|-------------------------|-------------------14-12-------12-|
E|-------------------------|-------------------------15-12----|

             X2
E|-------------------------|----------------------------------
B|-------------------------|----------------------------------
G|-------12-------14-------|----------------------------14-12-
D|-12-14----14-12----14-12-|-------------------12h14-12-------
A|-------------------------|----------15----------------------
E|-------------------------|-15-13-12----12-13----------------

E|---------------------------------------------------------------------||
B|---------------------------------------------------------------------||
G|12h14p12h14p12h14p12h14p12----------------------12-14-12-------------||
D|---------------------------14-12----------12-14---------14-12--------||
A|---------------------------------14-12-14---------------------14-12~-||
E|---------------------------------------------------------------------||

Referencias:
~ vibrar
h ligado ascendente - martilleo
p ligado descendente - martilleo
b levantar/bajar cuerda
Envía el tono de "Más allá de tus ojos" a tu celular/móvil
Este fichero es trabajo propio de su transcriptor y representa su interpretación personal de la canción. El material contenido en esta página es
para exclusivo uso privado, por lo que se prohibe su reproducción o retransmisión, así como su uso para fines comerciales.
© LaCuerda.net · Aviso Legal · Privacidad