Letra y Acordes de Dos Minutos: Ya No Sos Igual
Conexión · Inscripción
Letras y Acordes
Pantalla Completa
Imprimir
Versión Texto
Añadir Favorito
Otras Versiones

Mostrar Diagramas
Desfile Automático
Manipular Acordes
Formato del Texto

Dos Minutos
Ya No Sos Igual
calidad:
dos_0434
AUTOR: Mosca/indio/papa/marcelo
ALBUM: Valentin Alsina (92)
Enviado por Maurito7
primero bateria dsp se agrega el bajo con esto
Intro del Bajo entra al decimo tacho

1| ---------------------------
2| 3-----3-3-3-3-3-3-3-3------
3| --------------------------- sigue abajo
4| ---------------------------

1| ------------------------------
2| ------------------------------
3| 3------3-3-3-3-3-3-3-3-3------  sigue Abajo
4| ------------------------------

1| ---------------------------------------------
2| ---------------------------------------------
3| -5----5-5-5-5-5-5-5-5-1-----1-1-1-1-1-1-1-1--  x2
4| ---------------------------------------------

Intro de la Guitarra en el segundo del bajo entra con esto

E|-------3---3---5---5---13-------------------
B|--1--1--------------------------------------
G|--------------------------------------------
D|--------------------------------------------
A|-------------------------------------------- x1
E|--------------------------------------------

Intro : (FA, DO, RE, LA#) x2 (en el primero muteado)
(toda la intro dura 4 tiempos mas lo de la bat)

FA               DO
Carlos se vendio al barrio de Lanus,
   RE                 LA#
el barrio que lo vio crecer.

Ya no vino nunca mas por el bar de Fabian
y se olvido de pelearse los domingos en la cancha.

Por las noches patrulla la ciudad
molestando y levantando a los demas

Ya no sos igual, ya no sos igual
Sos un vigilante de la federal

LA#,DO  FA
        Sos buchon, sos buchon x2

Puente : (FA, DO, RE, LA#) (una guit acordes)
(la otra hace el punteo mas rapido)
             (LA#-DO, FA) x2 (LA 2da guit hace MI-FA)

Carlos se dejo crecer el bigote
y tiene una nueve para el.

Ya no vino nunca mas por el bar de Fabian
y se olvido de pelearse los domingos en la cancha.

el sabe muy bien que una bala en la noche
en la calle espera por el.

Ya no sos igual, ya no sos igual
Sos un vigilante de la federal

Sos buchon, sos buchon x2

Vos, sos buchon, de la policia federal x2 (dsp ascelera el ritmo)

Ya no sos igual, ya no sos igual
Sos un vigilante de la federal

Sos buchon, sos buchon x2

* Suena bien lo que saque
cualquier corrección manden un mail
Envía el tono de "Ya No Sos Igual" a tu celular/móvil
Este fichero es trabajo propio de su transcriptor y representa su interpretación personal de la canción. El material contenido en esta página es
para exclusivo uso privado, por lo que se prohibe su reproducción o retransmisión, así como su uso para fines comerciales.
© LaCuerda.net · Aviso Legal · Privacidad