Tablatura para Bajo de Divididos: Zombie
Conexión · Inscripción
Letras y Acordes
Pantalla Completa
Imprimir
Versión Texto
Añadir Favorito
Otras Versiones

Mostrar Diagramas
Desfile Automático
Formato del Texto

Divididos
Zombie(BAJ)
calidad:
divi0921
AUTOR: Diego Arnedo, Ricardo Mollo
ALBUM: Gol de Mujer (1998)
Enviado por matias
Versos: 'baila...'

G--------------------------------------------
D--------------------------------------------
A-77575------------7757-23-45----------------
E-------6-5-4-345----------------------------

Estribo:'va el zombie...'

G--------------------------------
D---2---22---2---22---2---22-----
A--------------------------------  Luego se va
E-0---0----0---0----0---0--------  repitiendo

Estribo:'cien cuadras de cola ...'

G--------------------------------
D----------9---99-9-7------------
A---------------------9-7--------  Luego se va
E--5-6-7-7---7------------10-9-7-  repitiendo

Final: ' ciego ...'

G----------------------------------
D------4---44------4---44----------
A---------------------------------- y sigue asi
E-22-2---2----22-2---2-------------

Final(2):

G------------------------------------
D--------------------------4---------
A------------------------------------
E-2--22--2--22-2--22-2-22--2---------

Pueden jugar mucho con estas bases , IMPROVISEN!
un saludo para todos , arriba la aplanadora y arriba
sindrome rnr.
Envía el tono de "Zombie" a tu celular/móvil
Este fichero es trabajo propio de su transcriptor y representa su interpretación personal de la canción. El material contenido en esta página es
para exclusivo uso privado, por lo que se prohibe su reproducción o retransmisión, así como su uso para fines comerciales.
© LaCuerda.net · Aviso Legal · Privacidad