Tablatura para Guitarra de Denisse de Kalafe: Señora
Conexión · Inscripción
Letras y Acordes
Pantalla Completa
Imprimir
Versión Texto
Añadir Favorito
Otras Versiones

Mostrar Diagramas
Desfile Automático
Manipular Acordes
Formato del Texto


Denisse de Kalafe
Señora(TAB)
calidad:
dkaf0013
AUTOR: Denisse de Kalafe  corregir
ALBUM: desconocido
Enviado por eduardo
WOOOOLAZ PSS ES LA PRIMERA CANCION KE SUBO EZPERO Y LEZ GUZTE
EZTA VA DEDICADA ESPECIALMENTE A MI MAMA BUENO ALGUNA DUDA
AKI EZTA MI CORREO DJ_KAIZERFUEGO@HOTMAIL.COM
BUENO EZTA MUY FACIL DE TOCAR Y ESTA ES UNA ENTRADA KE SAKE
ESTA ES OPCIONAL ZI LA KIEREZ TOCAR BYE


e--0-7-7-7-7-7-7-7-5-7-8-7-5-3
B-----------------------------
G-----------------------------
D-----------------------------
A-----------------------------
E-----------------------------


e--3-12-12-12-12-12-12-12-10-5-5-7-8-8-7
B---------------------------------------
G---------------------------------------
D---------------------------------------
A---------------------------------------
E---------------------------------------

e-3-0-0-0-0-2-3-7-5-3-7-5-8-8-7-5-8-7-5-8-7-7-3
B----------------------------------------------
G----------------------------------------------
D----------------------------------------------
A----------------------------------------------
E----------------------------------------------

e-3-7-5-3-7-5-3-7-3-3-2-0-3-2-0-2
B--------------------------------
G--------------------------------
D--------------------------------
A--------------------------------
E--------------------------------





D F#m Bm A ti que me diste tu vida, tu amor y tu espacio
G A D a ti que cargaste en tu vientre dolor y cansancio.
G A A ti que peleaste con uñas y dientes
F#m Bm valiente en tu casa y en cualquier lugar,
G A A7 a ti rosa fresca de abril a ti mi fiel querubin.
D F#m Bm A ti te dedico mis versos, mi ser, mis victorias
G A D a ti mis respetos señora, señora, señora.
G A A ti mi guerrera invencible
F#m Bm a ti luchadora incansable,
G A D a ti mi amiga constante, de todas las horas.
D F#m Bm Su nombre es un nombre comun, como las margaritas
G A D siempre mi poca presencia constante en mi mente
G A y para no hacer tanto alarde
F#m Bm esa mujer de quien hablo
G A es linda mi amiga, gaviota,
D su nombre es... mi madre LUEGO LA CANCION SE REPITE 2 VECES
Este fichero es trabajo propio de su transcriptor y representa su interpretación personal de la canción. El material contenido en esta página es
para exclusivo uso privado, por lo que se prohibe su reproducción o retransmisión, así como su uso para fines comerciales.
© LaCuerda.net · Aviso Legal · Privacidad