Letra y Acordes de Danilo Montero: Eres Todopoderoso
Conexión · Inscripción
Letras y Acordes
Pantalla Completa
Imprimir
Versión Texto
Añadir Favorito
Otras Versiones

Mostrar Diagramas
Desfile Automático
Manipular Acordes
Formato del Texto

Danilo Montero
Eres Todopoderoso
calidad:
dmon0045
AUTOR: ???
ALBUM: desconocido
Enviado por Ovidio
Saludos para la raza de la alabanza de la iglesia Monte Sinaí:
Diego,Miguel,Abundio,Ricardo,Roberto y los que se agregen.

Mientras se toca la intro los demás instrumentos
están tocando como los tonos de arriba de la gráfica

  |         Bm           | E |         Bm            | E
e)|----------------------|---|-----------------------|
B)|-----------7----------|---|----------7------------|
G)|-----7---7---7---7----|---|----7---7---7---7------|
D)|-7-9---9-------9---9-9|---|7-9---9-------9---9-9--|
A)|----------------------|---|-----------------------|
E)|----------------------|---|-----------------------|


   Bm                  G
La única Razón de mi adoración
D             A
Eres tú mi Jesús
   Bm             G
El único motivo para vivir
D              A(la segunda vez se pone F#)
Eres tú Mi Señor

      Bm          G
Mi única verdad esta en Ti
         D              A
Eres mi luz y mi salvación
      Bm           G
Mi único amor eres Tu Señor
        D             F#
Y por siempre te alabaré


Coro:
         Bm      G
Tu Eres Todo poderoso
      D             A
Eres Grande y Majestuoso
       Bm          G
Eres Fuerte e Invencible
         D           A
Y no hay nadie como Tú

  |         Bm           | E
e)|----------------------|
B)|-----------7----------|
G)|-----7---7---7---7----|
D)|-7-9---9-------9---9-9|
A)|----------------------|
E)|----------------------|

Se vuelve a repetir todo y luego:

Puente:
  |  Bm  |   G  |   D   |  A |  Bm  |   G  |    D    |  A |
e)|------|------|-------|----|------|------|-10-12-14|-12-|
B)|-3-5-7|-3-5-7|-10-8-7|-10-|-3-5-7|-3-5-7|---------|----|
G)|------|------|-------|----|------|------|---------|----|
D)|------|------|-------|----|------|------|---------|----|
A)|------|------|-------|----|------|------|---------|----|
E)|------|------|-------|----|------|------|---------|----|

Coro:
      C#m      A
Eres Todo poderoso
      E             B
Eres Grande y Majestuoso
       C#m          A
Eres Fuerte e Invencible
         E           B
Y no hay nadie como Tú

  |        C#m                |F#|           |
E)|---------------------------|  |-----------|
B)|-------------9-------------|  |-----------|
G)|------9----9---9----9------|X4|-----------|
D)|-9-11---11-------11---11-11|  |-9-11-9s11-|
A)|---------------------------|  |-----------|
E)|---------------------------|  |-----------|
Envía el tono de "Eres Todopoderoso" a tu celular/móvil
Este fichero es trabajo propio de su transcriptor y representa su interpretación personal de la canción. El material contenido en esta página es
para exclusivo uso privado, por lo que se prohibe su reproducción o retransmisión, así como su uso para fines comerciales.
© LaCuerda.net · Aviso Legal · Privacidad