Tablatura para Guitarra de Daniel F: El oso
Conexión · Inscripción
Letras y Acordes
Pantalla Completa
Imprimir
Versión Texto
Añadir Favorito
Otras Versiones

Mostrar Diagramas
Desfile Automático
Manipular Acordes
Formato del Texto


Daniel F
El oso(TAB)
calidad:
df0142
AUTOR: Daniel F  corregir
ALBUM: desconocido
Enviado por HEURCORP
========================================================================
==  CANCION: El Oso.                                ==
==  INTERPRETE: Daniel Augusto Valdivia Fernandez
(DANIEL F). ==
== COMPOSITOR: Mauricio Birabent Moris. == == DISCO: Version extraida de "Daniel F. en la Paradoja del Cero-47" == == www.heur.tk == ======================================================================== * El Oso, como la mayoria de las canciones de Daniel F es tocada medio tono mas bajo de la afinacion standar, es decir en "Mi Bemol" o "Re Sostenida" (Eb,Bb,Gb,Db,Ab,Eb). * El uso de 5tas es comun en Daniel y en Leusemia. * Para que la cancion resulte igual debes escuchar muy bien la forma de rasgueo, generalmente el Sr. F toca con puas. _____ INTRO ----- Notas Referenciales de posicion:
C Em Am F D9 C
Eb|---------------------------------1--1-1-----3---------0-----0-| Bb|----------------1-1-1-1-1-----------1-1-------------1---1-----| Gb|------0-------0---2-2-2-2------2----2-2---2-------0-------0---| Db|----2-------2-----2-2-2-2----3------3-3---------2-------------| Ab|--3-----3-2-------0-0-2-0--3--------3-3-2-----3---------------| Eb|--------------------------------------------------------------| _______ CON VOZ ------- Yo vivia en el bosque muy contento,
Eb |--------------------------------|
Bb |--------------------------1-----|
Gb |------0--------0--------2---2---|
Db |----2--------2--------2-------2-|
Ab |--3-----3--2-----2--0-----------|
Eb |--------------------------------| caminaba, caminaba sin cesar,
Eb |-------------------------------|
Bb |-----------1-----------3-------|
Gb |-------2-------2-----0---0-----|
Db |-----3---3---3-----0-------0---|
Ab |-------------------------------|
Eb |---1-------------3-------------| las mañanas y las tardes eran mias,
Eb |--------------------------------|
Bb |--------------------------1-----|
Gb |------0--------0--------2---2---|
Db |----2--------2--------2-------2-|
Ab |--3-----3--2-----2--0-----------|
Eb |--------------------------------| por las noches me tiraba a descansar,
Eb |-------------------------------|
Bb |-----------1-----------3-------|
Gb |-------2-------2-----0---0-----|
Db |-----3---3---3-----0-------0---|
Ab |-------------------------------|
Eb |---1-------------3-------------| pero un dia vino el hombre con su jaulas,
Eb |--------------------------------|
Bb |--------------------------1-----|
Gb |------0--------0--------2---2---|
Db |----2--------2--------2-------2-|
Ab |--3-----3--2-----2--0-----------|
Eb |--------------------------------| me encerro y me llevo a la ciudad,
Eb |-------------------------------|
Bb |-----------1-----------3-------|
Gb |-------2-------2-----0---0-----|
Db |-----3---3---3-----0-------0---|
Ab |-------------------------------|
Eb |---1-------------3-------------| En el circo me enseñaron las piruetas,
Eb |--------------------------------|
Bb |--------------------------1-----|
Gb |------0--------0--------2---2---|
Db |----2--------2--------2-------2-|
Ab |--3-----3--2-----2--0-----------|
Eb |--------------------------------| y asi perdi mi amada libertad,
Eb |-------------------------------|
Bb |-----------1-----------3-------|
Gb |-------2-------2-----0---0-----|
Db |-----3---3---3-----0-------0---|
Ab |-------------------------------|
Eb |---1-------------3-------------| ////Tocar las quintas rasgando unicamente hacia abajo///// Conformate me decia un tigre viejo nunca el techo y la comida han de faltar solo exigen que hagamos las piruetas
F5 G
que a los chicos podamos alegrar Han pasado cuatro años de esta vida
F G
con el circo recorri el mundo asi pero nunca pude olvidarme de todo
F G
de mi bosque, de mis tardes, ni de mi En un pueblito lejano, alguien no cerro el candado era una noche sin luna, y yo deje la ciudad Ahora piso yo el suelo de mi bosque
F G
otra vez el verde de la libertad Estoy viejo pero las tardes son mias
F G C
vuelvo al bosque, estoy contento de verdad _____ OUTRO -----
C Em Am F G
////////////////////////////////////////// /// /// /// www.heur.tk /// /// /// //////////////////////////////////////////
Este fichero es trabajo propio de su transcriptor y representa su interpretación personal de la canción. El material contenido en esta página es
para exclusivo uso privado, por lo que se prohibe su reproducción o retransmisión, así como su uso para fines comerciales.

© LaCuerda.net · Aviso Legal · Privacidad