Tablatura para Guitarra de Daniel Calveti: La niña de tus ojos
Conexión · Inscripción
Letras y Acordes
Pantalla Completa
Imprimir
Versión Texto
Añadir Favorito
Otras Versiones

Mostrar Diagramas
Desfile Automático
Manipular Acordes
Formato del Texto

Daniel Calveti
La niña de tus ojos(TAB)
calidad:
dcal0082
AUTOR: Daniel calveti
ALBUM: desconocido (2005)
Enviado por Fernando
  |       C         |         G       |
e)|-----------------|-----------------|
B)|-----------------|-----------------|
G)|----5---4---5----|-----------------|
D)|-5-------------5-|--2--2--3s5------|
A)|-----------------|-----------------|
E)|-----------------|-----------------|

  |       Am        |         F       |
e)|-----------------|-----------------|
B)|-----------------|-----------------|
G)|-----5---4---5---|-----------------|
D)|--7------------7-|--2--2-3s5-------|
A)|-----------------|------------3----|
E)|-----------------|-----------------|

  |       C         |         G       |
e)|-----------------|-----------------|
B)|-----------------|-----------------|
G)|----5---4---5----|-----------------|
D)|-5-------------5-|--2--2--3s5------|
A)|-----------------|-----------------|
E)|-----------------|-----------------|

  |       Am        |         F       |
e)|-----------------|-----------------|
B)|-----------------|-----------------|
G)|-----5---4---5---|-----------------|
D)|--7------------7-|--2--2-3s5-------|
A)|-----------------|------------3----|
E)|-----------------|-----------------|

INTRO: //C G Am F//

            C                   G
//Me viste a mi cuando nadie me vio
           Am                   F
Me amaste a mi cuando nadie me amo//

              C              G
//Y me diste nombre yo soy tu niña
                Am                      F
La niña de tus ojos por que me amaste a mí//
              C               G
//Me amaste a mí, Me amaste a mí,
            Am               F
Me amaste a mí, Me amaste a mí//

C                             G                         Am
////Te amo más que a mi vida, te amo más que a mi vida
                           F
Te amo más que a mi vida, más////

                C                G
//Y me diste nombre yo soy tu niña
                Am                      F
La niña de tus ojos por que me amaste a mí//
             C
Me amaste a mí.

     C                    G                     Am         F
//Santo, (tu eres santo) Santo (tu eres santo), Santo Eres Tu//





La honra, gloria y alabanza son para Dios
Dios los bendiga
Fernando
Envía el tono de "La niña de tus ojos" a tu celular/móvil
Este fichero es trabajo propio de su transcriptor y representa su interpretación personal de la canción. El material contenido en esta página es
para exclusivo uso privado, por lo que se prohibe su reproducción o retransmisión, así como su uso para fines comerciales.
© LaCuerda.net · Aviso Legal · Privacidad