Tablatura para Guitarra de Daniel Betancourt: La quiero a morir
Conexión · Inscripción
Letras y Acordes
Pantalla Completa
Imprimir
Versión Texto
Añadir Favorito
Otras Versiones

Mostrar Diagramas
Desfile Automático
Manipular Acordes
Formato del Texto

Daniel Betancourt
La quiero a morir(TAB)
calidad:
dbet0073
AUTOR: Daniel Betancourt  corregir
ALBUM: desconocido
Enviado por Mauricio
Esta canción me gusta mucho y se la dedico a un personal muy especial....
espero les guste y a ella también......claro que no esta perfecto
pero se acerca muchísimo--muchísimo a la realidad........

Bueno para los que no sepan los acordes...o estén iniciándose
aquí se los dejo:..........

Los acordes utilizados en esta canción son:

   C  Em  Dm  Am   F   G
e--0---0---1---0---1---3
B--1---0---3---1---1---0
G--0---0---2---2---2---0
D--2---2---0---2---3---0
A--3---2---0---0---3---2
E--0---0---0---0---1---3


INTRODUCCIÓN:

Quisiera aclararles algo en la intro......que la primera cuerda (e)
a lo que arpegian en la intro la toquen con mas fuerza que el resto
de cuerdas esto a partir donde ya empiezan las notas en la intro....
es decir mientras tocan la primera que en este caso va al aire hagan
que el sonido de esta primera cuerda (e) dure un poco que el resto
de cuerdas.......

                         C
e-0-0-1-1----------------0---------------0---------------
B---------0-0-2-0-------1-1-------------1-1--------------
G-----------------3----0---0-----------0---0-------------
D-------------------------------0----------------0-------
A--------------------3--------2------3--------2----------
E--------------------------------------------------------

       C                Em
e------0----------------0--------------
B-----1-1--------------1--1------------
G----0---0------------0-----0----------
D--------------0-----------------------
A--3-------2--------2------------------
E--------------------------------------

Para lo que es el arpegio durante la canción usando cada una
de las notas ahí nombradas, deben arpegiar algo así y
que sea continuo el arpegiado:

             C                  Em               Am
e-------0------0-----------0----0-----------0-------0--
B------1-----1-----------0----0-----------1------1-----
G----0-----0-----------0----0-----------2------2-------
D--------2----------------2------------------2---------
A-3-----------------2----------------0-----------------
E------------------------------------------------------

Este ejemplo esta dado para las tres primeras notas deben
arpegiar lo mismo con cada uno de las notas de la canción
aclarando algo que si la frase es larga como la primera
con la que se inicia simplemente deben repetir lo mismo
con la misma nota hasta que les toque cambiar de nota......entendido

Esta parte es arpegiada......:

  C
Y yo que hasta ayer solo fui un holgazán
       Em
Y hoy soy el guardián de sus sueños de amor
           Am
La quiero a morir
   Dm
Podéis destrozar todo aquello que veis
         F                   G
Porque ella de un soplo lo vuelve a crear
        C              Em
Como si nada, como si nada
           Am
La quiero a morir


     C
Ella borra las horas de cada reloj
       Em
Y me enseña a pintar transparente el dolor
          Am
Con su sonrisa
    Dm
Y levanta una torre desde el cielo hasta aquí
      F                   G
Y me cose unas alas y me ayuda a subir
        C              Em
A toda prisa, a toda prisa
           Am
La quiero a morir


EL CORO ES RASGADO:

         Em          Am           G          C
Conoce bien, cada guerra, cada herida, cada ser
         Em           Am           F     G
Conoce bien, cada guerra, de la vida
              Em                     C
     e-----------------------------------------
     B---------1-----------1-----------1-------
     G-------0------------0-0---------0-0------
     D-----2---------0---2-------0---2------0--
     A---2----------2---3-------2---3------2---
     E-----------------------------------------
Y del amor también


 C
Me dibuja un paisaje y me lo hace vivir
       Em
En un bosque de lápiz se apodera de mi
           Am
La quiero a morir
        Dm
Y me atrapa en un lazo que no aprieta jamás
         F                 G
Como un hilo de seda que no puedo soltar
     C                 Em
No quiero soltar, no quiero soltar
           Am
La quiero a morir


         C
Cuando trepo a sus ojos me enfrento al mar
    Em
Dos espejos de agua encerrada en cristal
           Am
La quiero a morir
   Dm
Solo puedo sentarme solo puedo charlar
      F                    G
Solo puedo enredarme solo puedo aceptar
       C       Em
Ser solo suyoooooooo
            Am
La quiero a morir


CORO:RASGADO

         Em          Am           G          C
Conoce bien, cada guerra, cada herida, cada ser
         Em           Am           F     G
Conoce bien, cada guerra, de la vida
             Em                   C
     e------------------------------------------------------0-
     B---------0-1-----------1----------1---------1--------1--
     G-------0------------0-0--------0-0-------0-0--------0---
     D-----2---------0---2-------0--2------0--2------0---2----
     A---2----------2---3-------2--3------2--3------2---3-----
     E-------------------------------------------------0------
Y del amor también                 La quiero a morir...

Cualquier duda acerca de este tema o cualquier otro tema......
a mi correo ppmauro_87@hotmail.com
Loja-Ecuador
Envía el tono de "La quiero a morir" a tu celular/móvil
Este fichero es trabajo propio de su transcriptor y representa su interpretación personal de la canción. El material contenido en esta página es
para exclusivo uso privado, por lo que se prohibe su reproducción o retransmisión, así como su uso para fines comerciales.
© LaCuerda.net · Aviso Legal · Privacidad