Tablatura para Bajo de la Cuca: El Son del Dolor
Conexión · Inscripción
Letras y Acordes
Pantalla Completa
Imprimir
Versión Texto
Añadir Favorito
Otras Versiones

Mostrar Diagramas
Desfile Automático
Formato del Texto

la Cuca
El Son del Dolor(BAJ)
calidad:
cuca0044
AUTOR: La Cuca
ALBUM: Invasion de los blatidos (Ü¿¿)
Enviado por Gualo
He visto muchos tabs que se parecen,  pero no suenan
como deberia en la cancion. asi que ahí les va.

Toda la cancion es igual:

G---------------------------------------
D---------------------------------------
A---------------------5-5-5-5-5-5-5-5---
E---3-3-3-3-3-3-3-3-3-------------------
B---------------------------------------

    A veces mete arreglillos como fills, tales como:
G---------------------------------------
D---------------------------------------
A-------------------3--5-5-5-5-5-5-5----
E---3-3-3-3-3-3-3-3------------------5--
B---------------------------------------
    O como este:
G---------------------------------------
D---------------------------------------
A---------------------5-5-5-5-5-5-5-3---
E---3-3-3-3-3-3-3-3-5-------------------
B---------------------------------------
El rematillo ese de los finales de riFFs son:

G---------------------
D--5--4-2-------------
A---------5-4-2--5----
E---------------------
B---------------------


Va el solo del bajo. estuve probando bastantes solos e hice este que
es el que mas queda:


G------------------------------------------------------------|--------
D------9--12------9--12---------------------------9----------|--------
A--10---------10-------------9--12-----9--12---------12--9---|-10-----  
E------------------------10---------10--------10-------------|--------
B------------------------------------------------------------|--------

Se repite, el último 10 es el primero del riff, o sea, en ciclos.


y listo. es toda la cancion en si. los tonos 10 y 12 son diez y doce. 
no uno cero uno dos.

sale.
Como sea he visto muchos tabs y casi ninguno quedaba, por eso decidi
en poner este. es el exacto.

Saludos a todos. 
GuaLo.
Envía el tono de "El Son del Dolor" a tu celular/móvil
Este fichero es trabajo propio de su transcriptor y representa su interpretación personal de la canción. El material contenido en esta página es
para exclusivo uso privado, por lo que se prohibe su reproducción o retransmisión, así como su uso para fines comerciales.
© LaCuerda.net · Aviso Legal · Privacidad