Tablatura para Bajo de la Cuca: El Son De Dolor
Conexión · Inscripción
Letras y Acordes
Pantalla Completa
Imprimir
Versión Texto
Añadir Favorito
Otras Versiones

Mostrar Diagramas
Desfile Automático
Formato del Texto

la Cuca
El Son De Dolor(BAJ)
calidad:
cuca0031
AUTOR: la Cuca  corregir
ALBUM: La cuca (1994)
Enviado por roger
Esta es la version en F# con el solo de bajo EN LOS MISMOS TONOS


toda la cancion va en los siguientes tonos solo denle ritmo

G----------------
D----------------
A-------------4--
E---2------------

este es el solo de bajo es solo un arpegio

G---------------------------------------------
D--------8----11------8---11-----8----11-----8
A----9------------9------------9----------9---
E---------------------------------------------


G---------------------------------------------
D---------------------------------------------
A-------8-----11-------8----11-----8----11---8
E----9-------------9------------9----------9--
Envía el tono de "El Son De Dolor" a tu celular/móvil
Este fichero es trabajo propio de su transcriptor y representa su interpretación personal de la canción. El material contenido en esta página es
para exclusivo uso privado, por lo que se prohibe su reproducción o retransmisión, así como su uso para fines comerciales.
© LaCuerda.net · Aviso Legal · Privacidad