Tablatura para Guitarra de Coti: Nada fue un error
Conexión · Inscripción
Letras y Acordes
Pantalla Completa
Imprimir
Versión Texto
Añadir Favorito
Otras Versiones

Mostrar Diagramas
Desfile Automático
Manipular Acordes
Formato del Texto

Coti
Nada fue un error(TAB)
calidad:
coti0032
AUTOR: Coti
ALBUM: desconocido
Enviado por ANGEL
Esta es la version acustica en vivo...asi como
 la saque suena bacan y ls acordes en su punto,
  bueno ahi les va...

      A           E             D           E
 E-||---|-----------|-------------|-----------|-------||
 B-||---|--3-2------|---2-3-5-----|-3-2-------|-------||
 G-||-2-|-----4-2-4-|---------2-2-|-----4-2-4-|-------||
 D-||---|-----------|-------------|-----------|-2s4-2-||
 A-||---|-----------|-------------|-----------|-------||
 E-||---|-----------|-------------|-----------|-------||

A
Tengo una mala noticia
    E
no fue de casualidad
       D/F#                          E
yo quería que nos pasara...y tu, y tu
lo dejaste pasar

     A
No quiero que me perdones
   E
y no me pidas perdón
       D/F#
no me niegues que me buscaste
              E
nada nada de esto
       E7               A    E
nada de esto fue un error   wuoo
       D/F#
nada fue un error
         E            A      E
nada de esto fue un error   wuoo
       D/F#
nada fue un error
   E
yo te digo...

Los errores no se eligen
para bien o para mal
no fallé cuando viniste...y tu, y tu
no quisiste fallar

Aprendí la diferencia entre juego y el azar
quien te mira y quien se entrega
nada nada de esto
nada de esto fue un error  wuoo
nada fue un error
nada de esto fue un error  wuoo
nada fue un error...guitarra¡¡¡

En esta parte tienes que escuchar la cancion
y medir las velocidades,le agregue uno que
otro punteito para que no sonara tan vacio al tocarlo
a una sola guitarra,pero no desafina...

E-||-----7-----5-----3-----2-----------------------------||
B-||-7s8---8s7---7s5---5s3---3--2-3-5-3-2---3-2----------||
G-||--------------------------------------4-----4-2s4----||
D-||-----------------------------------------------------||
A-||-----------------------------------------------------||
E-||-----------------------------------------------------||

E-||-----7-----5-----3-----2------------||
B-||-7s8---8s7---7s5---5s3---3--2-3-----||
G-||------------------------------------||
D-||------------------------------------||
A-||------------------------------------||
E-||------------------------------------||


Apenas acabe este solo,rasguear rapidamente en "Mi mayor"...
aca empieza a cantar Paulina Rubio...

Tengo una mala noticia
no fue de casualidad
yo quería que nos pasara...y tu, y tu
lo dejaste pasar

No quiero que me perdones
y no me pidas perdón
no me niegues que me buscaste
nada nada de esto
nada de esto fue un error   wuoo
nada fue un error
nada de esto fue un error   wuoo
nada fue un error...

Y esta es la parte de Julieta Venegas

Los errores no se eligen
para bien o para mal
no fallé cuando viniste...y tu, y tu
no quisiste fallar

Aprendí la diferencia entre el juego y el azar
quien te mira y quien se entrega
nada nada de esto
nada de esto fue un error  wuoo
nada fue un error
nada de esto fue un error  wuoo
nada fue un error
nada de esto fue...

E-||-----7-----5-----3-----2------------||
B-||-7s8---8s7---7s5---5s3---3--2-3-2---||
G-||------------------------------------||
D-||------------------------------------||
A-||------------------------------------||
E-||------------------------------------||

  Y la cancion acaba en "La mayor", la nota D/F# pueden
tocarla como si fuera "Re mayor"...suena igual.
Un saludo pa la gentita de la Unac en la Facu de Fisica y a la gente
de Mecanica de Fluidos de la San Marcos...ahi nos vidrios
Envía el tono de "Nada fue un error" a tu celular/móvil
Este fichero es trabajo propio de su transcriptor y representa su interpretación personal de la canción. El material contenido en esta página es
para exclusivo uso privado, por lo que se prohibe su reproducción o retransmisión, así como su uso para fines comerciales.
© LaCuerda.net · Aviso Legal · Privacidad