Letra y Acordes de Colmillo Norteño: Sueño Guajiro
Conexión · Inscripción
Letras y Acordes
Pantalla Completa
Imprimir
Versión Texto
Añadir Favorito
Otras Versiones

Mostrar Diagramas
Desfile Automático
Manipular Acordes
Formato del Texto

Colmillo Norteño
Sueño Guajiro
calidad:
cnrt0041
AUTOR: Eden Muñoz
ALBUM: El Hotel del cid (2009)
Enviado por ricky
Que honda banda aquí dejando esta de colmillo
Ojala y les sirva




Te recomiendo que la toques como te la pongo pero
SI quieres
Puedes poner los acordes que sepas que son
    Gm   F    D#   A#
1. -3-  -1-  -2-  -1
2. -3-  -1-  -3-  -3
3. -3-  -2-  -2-  -3
4. -5-  -3-  -1-  -3
5. -5-  -3-  -1-  -1
6. -3-  -1-  -1-  -1




Intro:_ Gm, F, D#, A#, F

1.-------------------------------------------------
2.-------------------------------------------------
3.---------5----7---5---------------------------
4.-5---7----------------8---7---5---7----5---          repite 3 veces
5.------------------------------------------------          esto
6.------------------------------------------------

1.-----------------------------
2.--------------------------
3.--------------------------------
4.---8-7-6-5-------------
5.------------------------------
6.---------------------------------


Nota: la tabula no se si este bien
Pero los acordes si son =)
Alguna duda
MI correo

rickyanarquia@hotmail.com


Gm                  F
No sabes cuanto te deseo
D#              A#      F
te has vuelto mi necesidad
Gm                      F
tenerte aqui es lo que quiero
D#                 A#    F
mi amor por ti es de verdad


Gm                       F
besar tus labios es mi sueño
D#                 A#          F             Gm
y se que algun dia tu me vas a amar igual que yo
Gm                      F
yo tengo tanto que entregarte
D#                        A#           F     Gm       F
tan solo en un instante haria tan feliz tu corazón.. tu corazón

Coro:

Gm               F
Ayy amor cuanto te amo
D#                   A#                         F
ya quiero besar tus labios, ya quiero tocar tu piel
Gm                      F
ayy amor estoy perdido amor
D#                   A#              F
siento tanto miedo que sea solo un sueño guajiro
Gm           F
amor mio, te necesito

 Intro:_ Gm, F, D#, A#, F

1.-------------------------------------------------
2.-------------------------------------------------
3.---------5----7---5---------------------------
4.-5---7----------------8---7---5---7----5---       repite 3 veces
5.----------------------------------------------     esto
6.------------------------------------------------

1.-----------------------------
2.--------------------------
3.--------------------------------
4.---8-7-6-5-------------
5.------------------------------
6.---------------------------------

Gm                       F
besar tus labios es mi sueño
D#                 A#          F             Gm
y se que algun dia tu me vas a amar igual que yo
Gm                      F
yo tengo tanto que entregarte
D#                        A#      F        Gm                F
tan solo en un instante haria tan feliz tu corazón.. tu corazón

Coro:

Gm               F
Ayy amor cuanto te amo
D#                   A#                         F
ya quiero besar tus labios, ya quiero tocar tu piel
Gm                      F
ayy amor estoy perdido amor
D#                   A#              F
siento tanto miedo que sea solo un sueño guajiro
Gm           F
amor mio, te necesito


1.-------------------------------------------------
2.-------------------------------------------------
3.---------5----7---5---------------------------
4.-5---7----------------8---7---5---7----5---    repite 3 veces
5.------------------------------------------------   esto
6.------------------------------------------------

1.---------------------------------5-7---5----
2.--------------------5--7--8---------------
3.----------5--7--8--------------------------------
4.---5--7------------------------------------
5.-----------------------------------------------------
6.----------------------------------------------------------

Gm

By: ricky
Envía el tono de "Sueño Guajiro" a tu celular/móvil
Este fichero es trabajo propio de su transcriptor y representa su interpretación personal de la canción. El material contenido en esta página es
para exclusivo uso privado, por lo que se prohibe su reproducción o retransmisión, así como su uso para fines comerciales.
© LaCuerda.net · Aviso Legal · Privacidad