Letra y Acordes de Coalo Zamorano: Más fuerte que nunca
Conexión · Inscripción
Letras y Acordes
Pantalla Completa
Imprimir
Versión Texto
Añadir Favorito
Otras Versiones

Mostrar Diagramas
Desfile Automático
Manipular Acordes
Formato del Texto


Coalo Zamorano
Más fuerte que nunca
calidad:
czam0621
AUTOR: Coalo Zamorano
ALBUM: Más Fuerte que Nunca (2011)
Enviado por Armando
INTRO

E -----------------------------------------------------------------------
A ----3-s-5-5-5---------------------------------------------------
D -----------------------7--8--7--5--3--5--3--2--0--2-0---------
G -----------------------------------------------------------------------

E -----------------------3-------------3---------------------------------
A ----1-1-1-------------------------------------------5---3--------
D -----------------3--------2--3---------2-3-----2------------------
G ------------------------------------------------------------------------


Estrofa 1

 Por ti, los cojos danzan
 Por ti, los mudos cantan
 Los sordos ya escuchan
 Su voz a ti levantan


Pre coro

 Más fuerte que nunca
 te damos adoración


Coro

D C
Tu nombre exaltamos
Bb C
Eres Señor de la creación
D C
Tu nombre adoramos Eres el Rey de nuestro corazón Estrofa 2 Los redimidos cantan Los perdonados danzan Esclavos ya son libres Su voz a ti levantan El bajo repite todo el riff de intro durante las estrofas, una vez tras otra. Durante el Coro el cifrado del Bajo es octavado descendente
D/A/D C/G/C Bb/F/Bb G/D/G/C
y otra vez vuelves a D Muy sencilla dudas armandlemus13@gmail.com
Este fichero es trabajo propio de su transcriptor y representa su interpretación personal de la canción. El material contenido en esta página es
para exclusivo uso privado, por lo que se prohibe su reproducción o retransmisión, así como su uso para fines comerciales.

© LaCuerda.net · Aviso Legal · Privacidad