Tablatura para Guitarra de Los Changos: Anaranjado
Conexión · Inscripción
Letras y Acordes
Pantalla Completa
Imprimir
Versión Texto
Añadir Favorito
Otras Versiones

Mostrar Diagramas
Desfile Automático
Manipular Acordes
Formato del Texto

Los Changos
Anaranjado(TAB)
calidad:
chng0223
AUTOR: Franco Barrionuevo
ALBUM: Anaranjado (2007)
Enviado por ANTONIO
1---7h8----7h8----7h8----7h8----7h10----10-8-------
2-------5------5------6------6-------8--------8----
3-------5------5------7------7---------------------
4--------------------------------------------------
5--------------------------------------------------
6--------------------------------------------------

1-----8--10h13---12-12-10h12-----------------------
2--8-----------------------------------------------
3--------------------------------------------------
4--------------------------------------------------
5--------------------------------------------------
6--------------------------------------------------

1--------------------------------------------------
2----------------9--9---10--12---------------------
3---9-10-9-8---------------------------------------
4--------------9----9---10--12---------------------
5--------------------------------------------------
6--------------------------------------------------

1------------12-----10-----------------------------
2-----9--12-----12-----13--13--12h13---------------
3---9----------------------------------------------
4--------------------------------------------------
5--------------------------------------------------
6--------------------------------------------------

1----------------13-13-12h13---12-12-10h12---------
2---12--10--9--------------------------------------
3--------------------------------------------------
4--------------------------------------------------
5--------------------------------------------------
6--------------------------------------------------

1----10-8-------------8----------------------------
2-----------10----10----10-------------------------
3---------------9----------------------------------
4--------------------------------------------------
5--------------------------------------------------
6--------------------------------------------------

1---------0--------0-------------------------------
2-------3----------1--------------------------------
3-----1------------2-------------------------------
4------------------2-------------------------------
5---2--------------0-------------------------------
6--------------------------------------------------

tiene algunos arreglos mios pero igual se
escucha linda la version... gracias!
Envía el tono de "Anaranjado" a tu celular/móvil
Este fichero es trabajo propio de su transcriptor y representa su interpretación personal de la canción. El material contenido en esta página es
para exclusivo uso privado, por lo que se prohibe su reproducción o retransmisión, así como su uso para fines comerciales.
© LaCuerda.net · Aviso Legal · Privacidad