Tablatura para Guitarra de Los Chalchaleros: Zamba de Vargas
Conexión · Inscripción
Letras y Acordes
Pantalla Completa
Imprimir
Versión Texto
Añadir Favorito
Otras Versiones

Mostrar Diagramas
Desfile Automático
Manipular Acordes
Formato del Texto


Los Chalchaleros
Zamba de Vargas(TAB)
calidad:
chal0061
AUTOR: Domingo Lombardi, Andres Chazarreta
ALBUM: desconocido
Enviado por Manuel
Esta es la Zamba "punteada" (imitando al cantor):


|------3---5----------3---|      |-|-|-|-|-|   Rasgueo de \
|--6---5---6-----6----5---|      | | | | | 1   Zamba en    | 
|--7-------------7--------|      | | | 2 | |               |
|-------------------------|      | | | | | |    Dm (Rem)   |
|-------------------------|      | | | | 3 |               |
|-------------------------|                                |
                                                           | :Repite 2 veces
                                                           |
|--5----6----5----3----1--|      |-|-|-|-|-|   Rasgueo de  |
|--6----8----6----5----3--|      | | | | | |   Zamba en    |
|-------------------------|      | | 2 | 2 |               |
|-------------------------|      | | | | | |    A7 (LA7)   |
|-------------------------|      | | | | | |               |
|-------------------------|                               /







|--10---10--8---10--8---10---5--5---6--5--3----------5---3---1-|    |-|-|-|-|-|  Rasgueo de  \
|--11---11--10--11--10--11---6--6---8--6--5--5--5--6---5---3---|    | | | | | 1  Zamba en     |
|--------------------------------------------6--6--------------|    | | | 2 | |               | :Repite 2 veces
|--------------------------------------------------------------|    | | | | | |  Dm (Rem)     |
|--------------------------------------------------------------|    | | | | 3 |               |
|--------------------------------------------------------------|    | | | | | |              / 






Esta es la Zamba "Rasgueada" o con los acordes para cantar:







Z A M B A D E V A R G A S
Letra: Domingo Lombardi Música: Andrés Chazarreta NOTA: Se puede usar como intermedio el "punteo" anterior, debido a que esta zamba no posee estribillo. Si se hace debe respetarse despues de los versos: - 2 y 3 Intro: Como punteo anterior o con los acordes del tema Forman los riojanos, en Pozo 'e Vargas; los manda Varela, firme en batallas. VERSO 1 Contra los santiagueños, con gran denuedo, van a pelear; ya Don Manuel Taboada alza su espada: se ve brillar. Atacó Varela, con gran pujanza: tocando a degüello, a sable y lanza. VERSO 2 Se oyen los alaridos, en el estruendo de la carga y ya pierden terreno los santiagueños de Taboada "Bravos santiagueños -dijo Taboada- vencer o la muerte vuelvan su cara. VERSO 3 Por la tierra querida, demos la vida para triunfar" Y ahí no más a la banda la vieja zamba mandó a tocar. En el entrevero se alzó esta zamba, llevando en sus notas bríos al alba. VERSO 4 Y el triunfo consiguieron los santiagueños y este cantar para eterna memoria, Zamba de Vargas siempre será.
Este fichero es trabajo propio de su transcriptor y representa su interpretación personal de la canción. El material contenido en esta página es
para exclusivo uso privado, por lo que se prohibe su reproducción o retransmisión, así como su uso para fines comerciales.

© LaCuerda.net · Aviso Legal · Privacidad