Tablatura para Guitarra de César Franco: Mi corazón encantado
Conexión · Inscripción
Letras y Acordes
Pantalla Completa
Imprimir
Versión Texto
Añadir Favorito
Otras Versiones

Mostrar Diagramas
Desfile Automático
Manipular Acordes
Formato del Texto

César Franco
Mi corazón encantado(TAB)
calidad:
cfra0061
AUTOR: Alejandro Arnais
ALBUM: Dragon ball gt (1996)
Enviado por Camilo
Bueno muchachos aquí les traigo una versión que para mí concierne
es buena del Opening de
Dragon Ball GT. Mi corazón encantado.


Intro:

E ---3-3-----3-5-3---------------------------------
B -------5-6-------6-5-3----5-5-----5-6-5----------
G ------------------------------5-7-------7-5-4-2--
D -------------------------------------------------
A -------------------------------------------------
E -------------------------------------------------

E --------5-3---------------------------
B --------------3-5-6-5-3---3----1-0-1--
G --2-2-5-----5-----------5-------------
D --------------------------------------
A --------------------------------------
E --------------------------------------

Esta parte va justo después del intro:

E ----------------------------------
B ----------------------------------
G ----------------------------------
D -----6-5-3---------8-6-5----------
A ---3-------6-5-6-5-------8-6-8-7--
E ----------------------------------


Verso:

E -----------------------------------------------------
B -----------------------------------------------------
G -----------------------------------------------------
D --10-10-10-10-10-8-6-8-10-8----8-8-8-8-8-6-5-6-8-6---
A -----------------------------------------------------
E -----------------------------------------------------

E -----------------------------------
B -----------------------------------
G -----------------------------------
D ----6-6-5-3-3h5--3-3-3-3-1-3-3h5---
A --3--------------------------------
E -----------------------------------

E ----------------------------------------------------------
B ----------------------------------------------------------
G ----------------------------------------------------------
D ---5-6-8-10--10-10-10-10-10-8-6-8-10-8----8-8-10-12-12-13-
A ----------------------------------------------------------
E ----------------------------------------------------------

E ----------------------------------------------------------
B ----------------------------------------------------------
G -------------------------------------12-10-10--10-8-7-8---
D ----------------------------------------------------------
A --13-11-10-11--11-13-11-10-----10-10----------------------
E ----------------------------------------------------------



E ---------------------------------------------------------
B ---------------------------------------------------------
G ---------------------------------------------------------
D --10-12-13-13-12-13-13-12-13-13--12-13h15-13-12-10-8-8---
A ---------------------------------------------------------
E ---------------------------------------------------------

E --------------------------------------
B --------------------------------------
G --------------------------------------
D --5-8-8-5-8-8----8-10-12-13-12-13-10--
A --------------------------------------
E --------------------------------------

E --------------------------------------------
B --------------------------------------------
G -----------------12-10---10-10-8-10-10h12---
D --13-12-13-12-10----------------------------
A --------------------------------------------
E --------------------------------------------


Ending:

E ---3-3-----3-5---------------------------------
B -------5-6-----6-5-3----5-5-----5-6-5----------
G ----------------------------5-7-------7-5-4-2--
D -----------------------------------------------
A -----------------------------------------------
E -----------------------------------------------

E --------5-3---------------------------
B --------------3-5-6-5-3---5---6-5-3---
G --2-2-5-----5-----------5-------------
D --------------------------------------
A --------------------------------------
E --------------------------------------

E ---3-3-----3-5-3---------------------------------
B -------5-6-------6-5-3----5-5-----5-6-5----------
G ------------------------------5-7-------7-5-4-2--
D -------------------------------------------------
A -------------------------------------------------
E -------------------------------------------------

E --------5-3---------------------------
B --------------3-5-6-5-3---3----1-0-1--
G --2-2-5-----5-----------5-------------
D --------------------------------------
A --------------------------------------
E --------------------------------------


Espero que les haya gustado, en verdad me parece excelente esta canción,
que la disfruten :)
Gracias por ver.
Envía el tono de "Mi corazón encantado" a tu celular/móvil
Este fichero es trabajo propio de su transcriptor y representa su interpretación personal de la canción. El material contenido en esta página es
para exclusivo uso privado, por lo que se prohibe su reproducción o retransmisión, así como su uso para fines comerciales.
© LaCuerda.net · Aviso Legal · Privacidad