Tablatura para Guitarra de Celine Dion: Titanic
Conexión · Inscripción
Letras y Acordes
Pantalla Completa
Imprimir
Versión Texto
Añadir Favorito
Otras Versiones

Mostrar Diagramas
Desfile Automático
Manipular Acordes
Formato del Texto

Celine Dion
Titanic(TAB)
calidad:
cdio0045
AUTOR: James Horner
ALBUM: Let´s talk About love (2001)
Enviado por hazzael
HOLA!!! esta es mi primer canción que envio, es la cancion de titanic
esta muy buena y facil de tocar,
envien comentarios a mi correo aza_292@hotmail.com

Se llama:
MY HEARTH WILL GO ON (TITANIC)
La afinación de las cuerdas es:  6 D - 5 A - 4 D - 3 G - 2 A - 1 D
Lleva Capo en el tercer(3) trate
Asi empieza:

d|----------------|--5-----0-------7-----5h4--0------------
A|----5h7-7h9-(9)-|----9------7----------------------------
G|----------------|------9----6-------------------4-----2--
D|----------------|-----------7----------------------------
A|----------------|-----------0-------------------------0--
D|--------0-------|---------------------------5------------

d|----------------|--5-----0-------7----4-7-9----7--------
A|----5h7-7h9-(9)-|----9------7----------------------7----
G|----------------|------9----6----------------------6----
D|----------------|-----------7----------------------7----
A|----------------|-----------0----------------------0----
D|--------0-------|-------------------------5------------

d|--0--------0--0-----0-----|-----0-------------0------
A|--------------------------|-4------------------------
G|-(2)----------------------|-2--------------2---------
D|-(4)-----4--------4-----0-|------------2----------0--
A|-----0--------------------|-0------0-----------------
D|--0-----------------------|--------------------------

d|------0-----------2---|-4------5-4--2--0--
A|--4-------------------|-5-----------4-----
G|---------------0------|-4-----------0-----
D|------------0---------|------0------------
A|----------------------|-------------------
D|--5------5------------|-------------------

d|--0---------0--0-----0-----|-----0----------0-----
A|---------------------------|-4--------------------
G|-(2)-----------------------|-2-----------2--------
D|-(4)------4--------4-----0-|-----------2-------0--
A|------0--------------------|-0------0-------------
D|--0------------------------|----------------------

d|-----------------------0--|----------0--2-0h2h0-----0--
A|--0-----------------0-----|----0-----------------4-----
G|----------0------0--------|-4-----4--------------------
D|-------0------4-----------|----------------------------
A|--------------------------|-------------0--------------
D|--5-----------------------|-5--------------------------

d|--0-------0--0----0-----|----0---------0-----
A|------------------------|-4------------------
G|-(2)--------------------|-2----------2-------
D|-(4)-----4-------4----0-|----------2------0--
A|------0-----------------|-0-----0------------
D|--0---------------------|--------------------

d|------0-------------2--|-4-----5-4-|-2-----0--
A|--4--------------------|-5---------|-4--------
G|-----------------0-----|-4---------|-0--------
D|--------------0--------|-----0-----|----------
A|-----------------------|-----------|----------
D|--5--------5-----------|-----------|----------

d|--0---------0--0-----0----|-----0------------0-----
A|--------------------------|--4---------------------
G|---------4----------------|--4-----------2---------
D|-----4------------4-----0-|-----------2---------0--
A|--2-----------------------|--0-----0---------------
D|--------------------------|------------------------

d|-----------------------0--|----0------4----------0--
A|--0-----------------0-----|--------7-------7--------
G|----------0------0--------|-4-----------------------
D|-------0------4-----------|-------------------0-----
A|--------------------------|-0---------0-------------
D|--5-----------------------|-------------------------

d|----------0---------------|-2----------------------
A|----------0---------0-----|-4---------4-----0------
G|-------4--4---------------|-4------4--2------------
D|----4-----4-----4-------0-|-----2---------2-----0--
A|--2-------2---------------|-0---------0------------
D|--------------------------|------------------------

d|--7---------5----------------------------4---5------
A|--5------------------9--7--------------0------------
G|------------------------6------------6--------------
D|--------5-------5-------7----------7-------------0--
A|------------------------7--------0-------0----------
D|--5-------------------------------------------------

d|--4--------------2-------------------0----------0------
A|-----------2--------------5------4---------------------
G|---------------------------------4-----------2---------
D|-------4-------4-------4------0----------2----------0--
A|--2------------------------------0-----0---------------
D|-------------------------------------------------------

d|-----------------------0--|----------0--2-0h2h0----0--
A|--0-----------------0-----|----0----------------4-----
G|----------0------0--------|-4-----4-------------------
D|-------0------4-----------|---------------------------
A|--------------------------|-------------0-------------
D|--5-----------------------|-5-------------------------

d|----------0---------------|-2----------------------
A|----------0---------0-----|-4---------4-----0------
G|-------4--4---------------|-4------4--2------------
D|----4-----4-----4-------0-|-----2---------2-----0--
A|--2-------2---------------|-0---------0------------
D|--------------------------|------------------------

d|--7---------5----------------------------4---5------
A|--5------------------9--7--------------0------------
G|------------------------6------------6--------------
D|--------5-------5-------7----------7-------------0--
A|------------------------7--------0-------0----------
D|--5-------------------------------------------------

d|--4-------------2-------------------0------------0-----
A|---------2-------------5------4------------------------
G|---------------------------------------------2---------
D|------4-----4------4------0---------------4---------0--
A|--2----------------------------------------------------
D|------------------------------4--------4---------------

d|------0-------------2--|-4-----5-4-|-2-----0--
A|--4--------------------|-5---------|-4--------
G|-----------------0-----|-4---------|-0--------
D|--------------0--------|-----0-----|----------
A|-----------------------|-----------|----------
D|--5--------5-----------|-----------|----------

d|----0-----------------5-------0--------7------5h4---
A|-------------------------9---------7----------------
G|----------------------------9------6----------------
D|-----------------------------------7----------------
A|-----------------------------------0----------------
D|--9-------------------------------------------------

d|--0-------------------------------
A|----------------------------------
G|---------------4---------------2--
D|----------------------------------
A|-------------------------------0--
D|--5-------------------------------

d|----------------|--5-----0-------7----4-7-9---7--------
A|----5h7-7h9-(9)-|----9------7--------------------------
G|----------------|------9----6--------------------------
D|----------------|-----------7---------------------0----
A|----------------|-----------0--------------------------
D|--------0-------|-------------------------5------------

Al estar tocando se mueve el capo
AQUI SE MUEVE EL CAPO DEL TERCER(3) AL CUERTO(4) TRASTE
   MOVER EL CAPO --->|´
                     |cuarto traste
d|--2----------------2-----------
A|--------------0-------------0--
G|----------0--------------0-----
D|------2---------------2--------
A|--0----------------0-----------
D|-------------------------------
                     |

AQUI YA ESTA EN EL CUARTO TRASTE

d|--0----------0---0------0----------0------------0---------
A|-------------------------------4--------------------------
G|-(2)---------------------------2-------------2------------
D|-(4)-------4----------4-----0-------------2---------0-----
A|-------0-----------------------0--------0-----------------
D|--0-------------------------------------------------------

d|------0-------------2--|-4-----5-4-|-2-----0--
A|--4--------------------|-5---------|-4--------
G|-----------------0-----|-4---------|-0--------
D|--------------0--------|-----0-----|----------
A|-----------------------|-----------|----------
D|--5--------5-----------|-----------|----------

d|--0----------0---0------0----------0------------0-------
A|-------------------------------4------------------------
G|-(2)---------------------------2-------------2----------
D|-(4)-------4----------4-----0--------------2---------0--
A|-------0-----------------------0--------0---------------
D|--0-----------------------------------------------------

d|-----------------------0--|----0------4----------0--
A|--0-----------------0-----|--------7-------7--------
G|----------0------0--------|-4-----------------------
D|-------0------4-----------|-------------------0-----
A|--------------------------|-0---------0-------------
D|--5-----------------------|-------------------------

d|--0----------0---0------0----------0------------0-------
A|-------------------------------4------------------------
G|-(2)---------------------------2-------------2----------
D|-(4)-------4----------4-----0--------------2---------0--
A|-------0-----------------------0--------0---------------
D|--0-----------------------------------------------------

d|------0-------------2--|-4-----5-4-|-2-----0--
A|--4--------------------|-5---------|-4--------
G|-----------------0-----|-4---------|-0--------
D|--------------0--------|-----0-----|----------
A|-----------------------|-----------|----------
D|--5--------5-----------|-----------|----------

d|--0---------0--0-----0----|-----0------------0-----
A|--------------------------|--4---------------------
G|---------4----------------|--4-----------2---------
D|-----4------------4-----0-|-----------2---------0--
A|--2-----------------------|--0-----0---------------
D|--------------------------|------------------------

d|-----------------------0--|----------0--2-0h2-0----0--
A|--0-----------------0-----|----0----------------4-----
G|----------0------0--------|-4-----4-------------------
D|-------0------4-----------|---------------------------
A|--------------------------|-------------0-------------
D|--5-----------------------|-5-------------------------


d|----------0---------------|-2----------------------
A|----------0---------0-----|-4---------4-----0------
G|-------4--4---------------|-4------4--2------------
D|----4-----4-----4-------0-|-----2---------2-----0--
A|--2-------2---------------|-0---------0------------
D|--------------------------|------------------------

d|--7---------5----------------------------4---5------
A|--5------------------9--7--------------0------------
G|------------------------6------------6--------------
D|--------5-------5-------7----------7-------------0--
A|------------------------7--------0-------0----------
D|--5-------------------------------------------------

d|--4--------------2-------------------0----------0------
A|-----------2--------------5------4---------------------
G|---------------------------------4-----------2---------
D|-------4-------4-------4------0----------2----------0--
A|--2------------------------------0-----0---------------
D|-------------------------------------------------------

d|-----------------------0--|----------0--2-0h2-0----0--
A|--0-----------------0-----|----0----------------4-----
G|----------0------0--------|-4-----4-------------------
D|-------0------4-----------|---------------------------
A|--------------------------|-------------0-------------
D|--5-----------------------|-5-------------------------

d|----------0---------------|-2----------------------
A|----------0---------0-----|-4---------4-----0------
G|-------4--4---------------|-4------4--2------------
D|----4-----4-----4-------0-|-----2---------2-----0--
A|--2-------2---------------|-0---------0------------
D|--------------------------|------------------------

d|--7---------5----------------------------4---5------
A|--5------------------9--7--------------0------------
G|------------------------6------------6--------------
D|--------5-------5-------7----------7-------------0--
A|------------------------7--------0-------0----------
D|--5-------------------------------------------------

d|--4-------------2-------------------0-----------------
A|---------2-------------5------4-----------------4------
G|---------------------------------------------2---------
D|------4-----4------4------0---------------4---------0--
A|--2----------------------------------------------------
D|------------------------------4--------4---------------

d|------0-------------2--|-4-----5-4-|-2-----0--
A|--4--------------------|-5---------|-4--------
G|-----------------0-----|-4---------|-0--------
D|--------------0--------|-----0-----|----------
A|-----------------------|-----------|----------
D|--5--------5-----------|-----------|----------

d|--0-------------------0-----------------------
A|--0--------0----------------------0--------0--
G|--------4------4---------------4-----4--------
D|-----4--------------4-------4----------4------
A|--2----------------------2--------------------
D|----------------------------------------------

d|--2-0h2h0----0---------------------------------0--
A|----------4--------0------0---0-------------0-----
G|----------------------0-------------0----0--------
D|---------------------------------0----4-----------
A|--0-------------0---------------------0-----------
D|------------------------------5-------------------

d|--------0-----5-----0--------------5------0---------
A|-----------9------9-----0-------9-----9----------0--
G|----------------------------9-----------------------
D|-----0---------------------------------------0------
A|----------------------------0---------0-------------
D|--9-------------------------------------------------

d|-------------------------0-----------------------------
A|-------------0---------0-------------------------------
G|----------0---------0----------------------------------
D|-------0---------4---------2-0h2h0-----0--2s/42----0--
A|----2----------------------0--------4-----0------------
D|--5----------------------------------------------------

d|-----------------0------0--------------4--
A|---------------------4------0-------------
G|-------------2----------------------------
D|--0-------4-------------------------------
A|-------0----------------------------------
D|----0-----------------------------0-------


Bueno esto es todo.Cualquier duda o comentario mandemelo a mi correo.
Solo es cuestion de agarrarle el ritmo, escuchen la cancion para que
se guien.Califiquenlo como crean que estä la canción, yo la escucho
mejor que las otras que estan, esta es otra version. Echenle ganas,
practiquen mucho.

Bye!!! SALUDOS
Envía el tono de "Titanic" a tu celular/móvil
Este fichero es trabajo propio de su transcriptor y representa su interpretación personal de la canción. El material contenido en esta página es
para exclusivo uso privado, por lo que se prohibe su reproducción o retransmisión, así como su uso para fines comerciales.
© LaCuerda.net · Aviso Legal · Privacidad