Tablatura para Guitarra de Carlos Portela: Un par de botas
Conexión · Inscripción
Letras y Acordes
Pantalla Completa
Imprimir
Versión Texto
Añadir Favorito
Otras Versiones

Mostrar Diagramas
Desfile Automático
Manipular Acordes
Formato del Texto

Carlos Portela
Un par de botas(TAB)
calidad:
cpor0011
AUTOR: J. G. Martin y Carlos Portela
ALBUM: Venga deme la mano Hermano del sur
Enviado por Richard
Bueno antes que nada un saludo desde Rusia a todos los que me
conocen, la canción es muy buena, faltan unos arreglos pero los
dejo para luego, espero les guste comentarios al correo bye.
Saludos al Abuelito y Marco en Esmeraldas, al Cholo y Taimal
que viven conmigo, a la Flaca que deje de joderle al Cholo y al
Ganso, Marvin, Lider mi hermano, hermana
a mis padres, a Diana, Andrea muchos abrazos. Bye
15.01.2008

Intro:

E: ---7--------5--------3--------2------2/5--5-3--3-2--2-3-|
B: -----0--------0--------0--------0-----------------------|
G: -------0--------0--------0--------0---------------------|
D: -5--------4--------2--------1--------1/4--4-2--2-1--1-2-|


E: ---7--------5--------3--------2--------5--------3--------2-----|
B: -----0--------0--------0--------0--------0--------0--------0---|
G: -------0--------0--------0--------0--------0--------0--------0-|
D: -5--------4--------2--------1--------4--------2--------1-------|


E: ---0-----0--------0-----0---------------2-----2---|
B: -----0-----0--------0-----0---------------0-------|
G: -------0-----0--------0-----0---------2-----2-----|
D: --------------------------------------------------|
A: -------------------------------0-1-2--------------|
E: -0--------------0---------------------------------|

E: ---5--------3--------2------------0---------------|
B: -----0--------0--------0--------0-----------------|
G: -------0--------0--------0----0-------------------|
D: -4--------2--------1------------------------------|
A: --------------------------------------------------|
E: ----------------------------0---------------------|

Sentado en su despacho, el comisario

A: --0-1-2--|

estaba ojeando expedientes cuando el cabo se presentó trayendo al detenido,

    MI (E)                                SI (H)
--0-------0-----0----0-------0-----0----2-------2-----2----2-------2-----2|
----0-------0----------0-------0----------0-------0----------0-------0----|
------0------------------0------------------2------------------2----------|
--------------------------------------------------------------------------|
--------------2------------------2------------0-----2------------0-----2--|
0-------3----------0-------3----------2------------------2----------------|

Bueno la parte de arriba se toca a traves de toda la cancion,
son dos acordes muy simples los cuales se tocan dos veces cada uno,
la parte de abajo es otra alternativa en caso de tener dos guitarras
son los mismos acordes con una pequeña variacion y acompañado del bajo:

    MI (E)                                SI (H)
--0-----0-----0------0-----0-----0------2-----2-----2------2-----2-----2--|
----0-----0-----0------0-----0-----0------0-----0-----0------0-----0-----0|
------0-----0------------0-----0------------2-----2------------2-----2----|
--------------------------------------------------------------------------|
--------------------------------------2------------------2----------------|
0------------------0------------------------------------------------------|

--------------2------------------2------------0-----2------------0-----2--|
0-------3----------0-------3----------2------------------2----------------|

un mozo de treinta años a lo sumo, vestia bombacha gris,
corralera que a juzgar por lo vieja estaba dando muestra
de la miseria de su dueño.

-7--8-7--7-7-8-7----------7-8-7--7-12-10-10-8-8--7-7-8-7----7-------7--|
-----------------10--8-10--------------------------------10----8-10----|

Sin levantar la vista de los papeles, prestó oidos a la palabra
del cabo: me lo entrego el sargento!

A: --0-1-2--|

A según dicen, este paisano vago le robó unas botas al
bolichero Vivas, comisario. Unas botas

A: --0-1-2--|

Aha!, ladrón barato

¿Cómo te llamas? Orencio Nievas señor, ¿Trabajas?,
no señor, no hallo trabajo, estuve, estuve  trabajando en la
chacra de don Barcala, pero en cuantito termino la juntada
del maíz, me echaron y, y ahora hago algunas changas y ansina vivo.
Y ¿a qué le llamas changas, andar robando?

El paisano bajó la vista al suelo.

E: ---5--------3--------2------------0---------------|
B: --------------------------------0-----------------|
G: ------------------------------0-------------------|
D: -4--------2--------1--------0---------------------|
A: --------------------------0-----------------------|
E: ------------------------0-------------------------|

¿A dónde tenes la botas? en el rancho. Cabo mande a
buscarlas y paselo pa adentro a este ratero que ya vamos
a ver lo que le damos.

Salió el milico tras la orden, y el comisario se quedó pensando
un par de botas, un par de botas, ni pa robar sirven estos
paisanos vagos.

No habian pasado dos horas que un milico se cuadró en la puerta
del despacho.

A: --0-1-2--|

Permiso mi comisario, fui hasta la casa del detenido Nievas
a traer las botas que le robo a don Vivas, me las entrego,
me las entrego su mujer, las tenia puestas un hijo de ellos,
un chico de unos siete años señor, con que ¿esas son las botas?,
son muy chicas pa ensuciarse las manos y, y ¿qué decia la mujer?,
 y nada comisario, hum lloraba como una magdalena y cuando me iba
a ir, me dio esta carta pa que se la entregue a usted en las
propias manos. Haber leame,

A: --0-1-2--|

Nada más natural mujeres que piden los maridos, mujeres que
piden los maridos, lo malo es que siempre los hallan angelitos,
aunque le hagan sombra al mismo diablo. Pero esa carta era
distinta a todas, escrita en un papel de estraza, mugriento y
arrugado las palabras eran una hilera torpe de garabatos que habia
estampado la gracia y la inocencia de aquella criatura de siete años ,
ajena por completo a la desgracia que la miseria tendió sobre su rancho.
El seño del comisario se fruncia al tiempo que la iba descifrando y al
acabar de leer.

Agente!, vaya hasta la casa del detenido Nievas y devuelvale
a la mujer esas botas, digale, digale que fue un error, que
nos disculpe, después le pregunta al bolichero de parte del
comisario cuánto valen las botas, se las paga y que se olvide
el caso, espere espere espere, no se vaya a Orencio Nievas ya mismo
me lo suelta y, y que no deje de llegarse hasta aca mañana mismo
puede ser, puede ser que le haya allado algún trabajo.

Salió el milico tras la orden, y don Segundo se acomodó en la silla
pa’ repasar esa sucia hoja de papel que aun, aun temblaba como
un pajarito herido entre sus manos.

Señores reyes magos, señores reyes magos yo les pido que este año,
yo les pido que este año no se olviden de traerme las botitas,
yo soy bueno ya según dicen los otros chicos, ya según dicen
los otros chicos, si uno se porta bien todito el año, ustedes
no se olvidan de regalo.

Al dejar de leer el comisario, sintió como una brasa dentro del
pecho, y hecho pa afuera toda la rabia murmurando, mientras que
la miseria, mientras que la miseria haga ladrones de esta laya
yo nunca servire  pa' comisario.
Envía el tono de "Un par de botas" a tu celular/móvil
Este fichero es trabajo propio de su transcriptor y representa su interpretación personal de la canción. El material contenido en esta página es
para exclusivo uso privado, por lo que se prohibe su reproducción o retransmisión, así como su uso para fines comerciales.
© LaCuerda.net · Aviso Legal · Privacidad