Letra y Acordes de Carlos Barocela: Tu nombre en la arena
Conexión · Inscripción
Letras y Acordes
Pantalla Completa
Imprimir
Versión Texto
Añadir Favorito
Otras Versiones

Mostrar Diagramas
Desfile Automático
Manipular Acordes
Formato del Texto

Carlos Barocela
Tu nombre en la arena
calidad:
cbar0011
AUTOR: Carlos Barocela
ALBUM: desconocido
Enviado por Cuatzo
    Laa,lalala...         Laa,lala... 
E-------------6-------|---6-------8------------
A---------------8-----|-------------0----------
D-----------------8---|---------------10-------
G-------------------0-|------------------0-----
B---------------------|------------------------
e---------------------|------------------------


         Laa, lalala...
E--------8--------7----------------------------
A---------------------9------------------------
D------------------------9---------------------
G---------------------------7------------------
B-------------------------------------0--------
e----------------------------------------------
         Surge tu voz de la noche callada

             Laa,lala   LA...
E------------7----------6----------------------
A-----------------------------8----------------
D---------------------------------8------------
G------------------------------------0---------
B----------------------------------------0-----
e----------------------------------------------
        Nombrándome las cosas que nombraba


(El ritmo es igual al del solo de guitarra)


            LA#m
Mientras el mar 
                 C7sus4 
besa una playa ajena

Yo busco en vano
                     LA#m
tu nombre entre la arena

            RE#m  
Yo busco en vano

La luz de tu verano

Y aquellas noches
C7sus4              Db
anchas bajo el cielo

           Fa#/Gb
Cuando tu piel
                    LA#m
se acostumbro a mi mano
     C7sus4
Y mi frente
                  LA#m
a la sombra de tu pelo

      LA# 
Y hay tanta adolescencia 

apresurada
             LA#7
Y tanta soledad 
       RE# 
arrepentida

           RE#m
Que estas aquí
                     LA#m
Y aunque no estas conmigo
              RE#                
Vuelvo a encontrar
            LA#m
tu corazón amigo
            C7sus4
Junto a las cosas
            LA#m
que toco tu vida


(solo de guitarra)

     Lalalala...           Lalala... 
E----0---0-6-----6------|--6-7-8-----8---------
A------8-----------8----|--------------10------
D-----------------------|----------------------
G------------6-------6--|--------8--------8----
B--------------6-----6--|----------8------8----
e--------------6-----6--|----------8------8----


     Lalalala              lalala
E----8----0-7-----7-----|--7---6-----6---------
A------10-----------9---|----9---------8-------
D-----------------------|----------------------
G-------------7-------7-|--------6-------6-----
B---------------7-----7-|----------6-----6-----
e---------------7-----7-|----------6-----6-----



              RE#m
Y hasta en el cielo

la cruz del sur evoca
             C7sus4
Antiguas alegrias
           Db
que se han muerto

             Fa#/Gb
Y el faro al sur
                LA#m
es una estrella rota
    C7sus4
que numbra la vigilia 
         LA#m
de algún puerto

      LA# 
Y hay tanta adolescencia 

apresurada :Bis

(Al final del solo de guitarra,
se termina disminuyendo el ritmo)

    LA#m             C7sus4           RE#m               Db
  8       6       10       8        8       6        12      10
|---|---|-1-|-   |---|---|-1-|-   |---|---|-1-|-   |---|---|-1-|-   |---|---|-1-|-  
|-3-|---|-1-|-   |-3-|---|-1-|-   |---|---|-1-|-   |-4-|---|-1-|-   |-3-|---|-1-|-
|-4-|---|-1-|-   |-4-|---|-1-|-   |-3-|---|-1-|-   |-3-|---|-1-|-   |---|---|-1-|-
|---|---|-1-|-   |---|---|-1-|-   |-4-|---|-1-|-   |---|-2-|-1-|-   |---|-2-|-1-|-
|---|---|-1-|-   |---|---|-1-|-   |---|-2-|-1-|-   |---|---|-1-|-   |---|---|-1-|-
|---|---|-1-|-   |---|---|-1-|-   |---|---|-1-|-   |---|---|-1-|-   |---|---|-1-|-


    Fa#/Gb            LA#              RE#m             RE#   
  4       2        8       6        8       6        8       6      
|---|---|-1-|-   |---|---|-1-|-   |---|---|-1-|-   |---|---|-1-|-  
|-3-|---|-1-|-   |-3-|---|-1-|-   |---|---|-1-|-   |---|---|-1-|-   
|-4-|---|-1-|-   |-4-|---|-1-|-   |-3-|---|-1-|-   |-2-|---|-1-|-  
|---|-2-|-1-|-   |---|-2-|-1-|-   |-4-|---|-1-|-   |-3-|---|-1-|-   
|---|---|-1-|-   |---|---|-1-|-   |---|-2-|-1-|-   |-4-|---|-1-|-   
|---|---|-1-|-   |---|---|-1-|-   |---|---|-1-|-   |---|---|-1-|- 




'Esta canción se la dedico a Wendy Andrade Morato. El amor de mi vida Por los días 
que viví contigo, y por los que he vivído sin tí.' 
Esperándo que algún día, estemos juntos nuevamente, y esta vez para siempre.
'Wendy, solo quiero decirte con esta canción que te amo.Que nunca he dejado de amarte'
Que eres y serás por siempre...Como un sueño. Finalmente... mi sueño hecho realidad.
Envía el tono de "Tu nombre en la arena" a tu celular/móvil
Este fichero es trabajo propio de su transcriptor y representa su interpretación personal de la canción. El material contenido en esta página es
para exclusivo uso privado, por lo que se prohibe su reproducción o retransmisión, así como su uso para fines comerciales.
© LaCuerda.net · Aviso Legal · Privacidad